Fail To Launch - This Is The Time To Kill tab

D|-----------------------------------|
A|-----------------------------------|
F|-----------------------------------|
C|-----------------------------------| X4
G|--00-3-0-------1----1----1---------|
C|--00-----0-3-0-1-0-1-0-1-----------|
       ..

|--------------------------------|
|--------------------------------|
|--------------------------------| X4
|--------------------------------|
|--00-3-0-2-0-3-0-3-0-3----------|
|--00-----------3-0-3-0-3--------|
    ..                 .

| REPEAT NUMBER 1.X4|
|--------------------------------|
|--------------------------------|
|--------------------------------|
|--------------------------------|
|--------------------------------|


|------------------------------------|
|------------------------------12----|
|------------------------------15----|
|--000----0----00----0---------------| X4
|--000----0----00----0---------------|
|--000----0----00----0---------------|
    . . .      .       . .
Itís matched up with the drums.

|----------------------------------|
|----------------------------------|
|----------------------------------|
|-------7-----5-----3---3----3-----|
|--00--7-00-5-00-3-0-3-0-3---------|
|--00----00----00---0----0---------|

|---------------------------------------|
|---------------------------------------|
|------------------------------------5--|
|-------7------5------3------3-----5----|
|--00--7-00--5--0---3--0--3-0ó3---------|
|--00-----00-----0-------0----0---------|
Repeat each of those twice but, Do the first one then the second. Alternate.


Then the break down sounding thing where itís palm muted triplets of-
|---|                                  |---|
|---|                                  |---|
|---|                                  |---|
|-3-|                                 |-0--|
|-3-|                                 |-0--|
|-3-| Doing triplets Then|-0---------------| Then repeat the Intro, itís the exact same thing.


 Then.


|------------------------------------------------------|
|------------------------------------------------------|
|------------------------------------------------------| X2
|-0-0-0-0-0--5-5-5-5-5//3-3-3-3--3-3-5-5-0-------------|
|-0-0-0-0-0--5-5-5-5-5//3-3-3-3--3-3-5-5-0-------------|Let Ring
|-0-0-0-0-0--3-3-3-3-3//1-1-1-1--3-3-5-5-0-------------|

.- Palm Mute
//-Slide Down


http://www.myspace.com/sctlband
Tap to rate this tab
 
# A B C D E F G H I J K L M N O P Q R S T U V W X Y Z