Song name
# A B C D E F G H I J K L M N O P Q R S T U V W X Y Z

Failed Attempt - Kari tab

e--2----3----2----2----2----2----3----2----2
b--3----2----2----3----3----3----2----2----3
g--2----2----2----2----2----2----2----2----2  
d--x----x----x----x----x----x----x----x----x  
a--x----x----x----x----0----0----0----0----0
E--x----x----x----x----x----x----x----x----x

e--2----3----2----2----2----2----3----2----2
b--3----2----2----3----3----3----2----2----3
g--2----2----2----2----2----2----2----2----2  
d--x----x----x----x----x----x----x----x----x  
a--x----x----x----x----0----0----0----0----0
E--x----x----x----x----x----x----x----x----x


Well there it is if you need any help with anything else just message me. :)
Tap to rate this tab
 
# A B C D E F G H I J K L M N O P Q R S T U V W X Y Z