Song name
# A B C D E F G H I J K L M N O P Q R S T U V W X Y Z

Failure - Stuck On You tab

This is my first my first tab and its pretty close lol


Main Riff
E---------------------------------------------------------------------------|
B---------------------------------------------------------------------------|
G-----------------------------13------------------------------------13------|
D---15-13-------15-13----------------------15-13--------15-13---------------|
A----------13------------13-------13---------------13-----------13------13--|
E---------------------------------------------------------------------------|


E---------------------------------------------------------------------------|
B-------------------------------------------14-----------13-----------------|
G-----------------------------13-----------------12-------------------------|
D---15-13-------15-13--------------------------------13-------15--13--15-13-|
A-----------13-----------13--------13---------------------------------------|
E---------------------------------------------------------------------------|

Chords
E-----------------------------------------------------------------------|
B-----------------------------------------------------------------------|
G---8-8-8-8-8-8-8--8----------------------------6-6-6-6-6-6-6-6---------|
D---8-8-8-8-8-8-8--8----------------------------6-6-6-6-6-6-6-6---------|
A---6-6-6-6-6-6-6--6----------------------------4-4-4-4-4-4-4-4---------|
E-----------------------------------------------------------------------|


E---------------------------------------------------------------------|
B---------------------------------------------------------------------|
G---5-5-5-5-5-5-5-5---------------------------5-5-5-5-5-5-5-5---------|
D---5-5-5-5-5-5-5-5---------------------------5-5-5-5-5-5-5-5---------|
A---3-3-3-3-3-3-3-3---------------------------3-3-3-3-3-3-3-3---------|
E---------------------------------------------4-4-4-4-4-4-4-4---------|
Tap to rate this tab
 
# A B C D E F G H I J K L M N O P Q R S T U V W X Y Z