Song name
# A B C D E F G H I J K L M N O P Q R S T U V W X Y Z

Failure - The Nurse Who Loved Me tab

Enjoy


e|-14------------12-17-16---13---------------|
B|---14--------14-------------13---16-14-13--|
G|-----15-13-14------------------------------|
D|-------------------------------------------|
A|-------------------------------------------|
E|-------------------------------------------|

14------------------------------------9--11--11--|b
--14------------------------------9--9-----------|
----15-13-14-16p14-16p14/13-10--10-10------------|
------------------------------11-----------------|
-------------------------------------------------|
-------------------------------------------------|

Jonatan kid
Tap to rate this tab
 
# A B C D E F G H I J K L M N O P Q R S T U V W X Y Z