Song name
# A B C D E F G H I J K L M N O P Q R S T U V W X Y Z

Failure - Stuck On You tab

Failure
Stuck On You
Fantastic Planet

Tabbed by Jaysage

Such a simple song for there not to be a single correct tab hope
you enjoy playing it


Intro/Chorus Lead
(Play with slight reverb and harmonizer effect)
eb|------------------|--10-----9--------------------|
Bb|--7----7-----10---|-----7-----7---7--------------|
Gb|----9----9--------|-------9-----9---9------------|
Db|------9----9----9-|------------------------------|
Ab|------------------|------------------------------|
Eb|------------------|------------------------------|
          x3                       end   

Verse/Chorus/Bridge Rhythm
eb|------------------|-------------------------------|
Bb|------------------|-------------------------------|
Gb|--11--------------|---6---------------------------|
Db|---9-------7------|---6-------4------7------------|
Ab|---7-------5------|---4-------4------7------------|
Eb|-----------3------|---4-------2------5------------|
     x8      x8         x8      x4     x4  
Tap to rate this tab
 
# A B C D E F G H I J K L M N O P Q R S T U V W X Y Z