Song name
# A B C D E F G H I J K L M N O P Q R S T U V W X Y Z

Faint - Erection tab

-------------------------------------------------------------------------------
			     Erection - The Faint
-------------------------------------------------------------------------------
Tabbed by: coolcatch
Email: coolcatch@hotmail.com

Tuning: EADGBe
    A
e|--5--------------------------|
B|--5--------------------------|
G|--6--------------------------|
D|--7--------------------------|
A|--7--------------------------|
E|--5--------------------------|

Listen to the song for strum pattern its pretty easy, thats for the intro then soon
after the synthesizer comes in on lead (sawtooth) and plays

e|----------------------------------|
B|----------------------------------|
G|----------------------------------|
D|----------------------------------| 
A|----------------------------------|
E|--5--5-5------5---5-5-------------|

For around about the whole song, if you have a really thick distortion and a muddy tone
you could get away with this on the bass, then after the first chorus theres a little
bass riff which also comes in at the end which is like

e|--------------------------------------------------------|
B|--------------------------------------------------------|
G|--------------------------------------------------------|
D|--------------------------------------------------------| 
A|----------3-3----------3-5---------3-3------------------|
E|--5-5-5-5------5-5-5-5-----5-5-5-5------5-5-5-5--6--3---|

Thats basically the whole song u can get on guitar, email me with any corrections
Tap to rate this tab
# A B C D E F G H I J K L M N O P Q R S T U V W X Y Z