Song name
# A B C D E F G H I J K L M N O P Q R S T U V W X Y Z

Faint - Dropkick The Punks tab

Song: Dropkick the Punks
Artist: The Faint
Tabbed by: Andrew Bethman
Email: yashimasta@hotmail.com

Hope you all enjoy...email me any comments/corrections please


Main Riff
e---------------------------------------------------------------------|
B---------------------------------------------------------------------|
G------5-------------------------------5------------------------------|x2
D--------4------3-----5-------------------4--------3------6--5--------|
A---3---------6-----6-----6----------3-----------6-----6--------------|
E---------------------------------------------------------------------|


Lead
e---------------------------------------------------------------------|
B---13-13^----13-13-----13-11-----------13-13^----13-13----13---------|
G--------------------------------------------------------------12-----|x2
D---------------------------------------------------------------------|
A---------------------------------------------------------------------|
E---------------------------------------------------------------------|


Rhythm

e---------------------------------------------------------------------|
B---------------------------------------------------------------------|
G--x-x-x--------------------------------------------------------------|
D--x-x-x--do that for a while-----------------------------------------|
A--x-x-x--------------------------------------------------------------|
E---------------------------------------------------------------------|


Main riff

Rhythm

Main Riff with Lead at same time


Bridge --- strum somewhat lightly and maybe slight Palm Mute
e------------------------|
B------------------------|
G--5---------------------|
D--x--do that for a while
A--3---------------------|
E------------------------|


Main Riff with Lead at same time

End
Tap to rate this tab
# A B C D E F G H I J K L M N O P Q R S T U V W X Y Z