Song name
# A B C D E F G H I J K L M N O P Q R S T U V W X Y Z

Fair To Midland - Kyla Cries Cologne tab

Kyla Cries Cologne by Fair To Midland, tabbed by Sam Henly
(sam_henners@hotmail.com for tips/questions/corrections etc).

First tab. Helped&inspired by Adam J. Morgan Esq.


Intro
e|------------------------------------------|
b|-------8-------8------------6-------6-----|
g|---5-------5-------5----3-------3-------3-|
d|-7---7---7---7---7----5---5---5---5---5---|
a|------------------------------------------|
d|------------------------------------------|

e|----------------------------------------------------------|
b|---------12---------12---------------15----------15-------|
g|----9----------9---------9-----12----------12----------12-|
d|-11---11----11---11---11----14----14----14----14----14----|
a|----------------------------------------------------------|
d|----------------------------------------------------------| 2 1/2 times


Verse
e|---------------------------------------|-------|
b|---------------------------------------|-------|
g|---------------------------------------|-------|
d|-5777-777-7-77-77555---555333---333555-|-55555-|
a|-5777-777-7-77-77555---555333---333555-|-55555-|
d|-5777-777-7-77-77555---555333---333555-|-55555-| last time only


Pre-Chorus
e|------------------------------|
b|------------------------------|
g|------------------------------|
d|-7-7777-10-9-9999-12-10101010-|
a|-5-5555-8--7-7777-10-8 8 8 8--|
d|------------------------------|
    "Planting the seeds..."

e|-----------|
b|-----------|
g|-----------|
d|-5-7-9-5-3-|
a|-5-7-9-5-3-|
d|-5-7-9-5-3-|
  "...the ro-ows"


Chorus
e|----------------------------------|
b|----------------------------------|
g|----------------------------------|
d|-333333-555555-777777777777-99999-|
a|-333333-555555-777777777777-99999-|
d|-333333-555555-777777777777-99999-|
       "Let's go outside..."

e|-------------------|
b|-------------------|
g|-------------------|
d|-3-1-0-1-3-5-55-55-|
a|-3-1-0-1-3-5-55-55-|
d|-3-1-0-1-3-5-55-55-| listen carefully for timing
   "me-chanical..."


Bridge
e|---------------|
b|---------------|
g|---------------|
d|-1310-13-55-53-|
a|-1310-13-55-53-|
d|-1310-13-55-53-|
    "Bound..."

e|----------|
b|----------|
g|----------|
d|-355553-11
a|-355553-11
d|-355553-11

e|-----------------|
b|-----------------|
g|-----------------|
d|-5555557777799999
a|-5555557777799999
d|-5555557777799999 quiet
Tap to rate this tab
 
# A B C D E F G H I J K L M N O P Q R S T U V W X Y Z