Song name
# A B C D E F G H I J K L M N O P Q R S T U V W X Y Z

Fair To Midland - The Walls Of Jericho tab

This is the Inter.Funda.Stifle version, but also with ending of Fables from a Mayfly.

The chorus is pretty much the same in Fables from a Mayfly, some riffs were just 
in Fables.

The Chorus is in Heavy Distortion and the verses and bridge are in Clean Tone with the 
emphasized. The bridge also sounds cool with some Delay.

Tuning: C-G-C-F-A-D

INTRO
D |-----------------------------------------|
A |---6-6-6----6-6-6----6-6-6----6-6-6------|
F |---7-7-7----7-7-7----7-7-7----7-7-7------|
C |---7-7-7----7-7-7----7-7-7----7-7-7------|
G |---5-5-5----5-5-5----5-5-5----5-5-5------|
C |-----------------------------------------|

VERSES:

D |-----------------------------------------|
A |---6-6-6---------------------------------|
F |---7-7-7----5-5-5----3-3-3----5-5-5------|     Repeat 2x
C |---7-7-7----5-5-5----3-3-3----5-5-5------|
G |---5-5-5----3-3-3----1-1-1----3-3-3------|
C |-----------------------------------------|

PRE-CHORUS:

D |-----------------------------------------|
A |---6-6-6----6-6-6----6-6-6----6-6-6------|
F |---7-7-7----7-7-7----7-7-7----7-7-7-5----|
C |---7-7-7----7-7-7----7-7-7----7-7-7-5----|
G |---5-5-5----5-5-5----5-5-5----5-5-5-3----|
C |-----------------------------------------|

CHORUS:

D |--------------------------------------------------------------------|
A |--------------------------------------------------------------------|
F |--------------------------------------------------------------------|
C |-8-8-8-8--10-10-10-10--12-12-12-12--15-14-12-10-12--15-14-12-10-12--|
G |-8-8-8-8--10-10-10-10--12-12-12-12--15-14-12-10-12--15-14-12-10-12--|
C |-8-8-8-8--10-10-10-10--12-12-12-12--15-14-12-10-12--15-14-12-10-12--|

D |------------------------------------------------------------------------|
A |------------------------------------------------------------------------|
F |------------------------------------------------------------------------|
C |-15-14-12-10-8-8-8-8--10-10-10-10--7-0-8-0-10-0-12-0-12-0-14-0-15-0-0-0-|
G |-15-14-12-10-8-8-8-8--10-10-10-10--7-0-8-0-10-0-12-0-12-0-14-0-15-0-0-0-|
C |-15-14-12-10-8-8-8-8--10-10-10-10--7-0-8-0-10-0-12-0-12-0-14-0-15-0-0-0-|

D |-----------------------------------------------------------------------|
A |-----------------------------------------------------------------------|
F |-----------------------------------------------------------------------|
C |-7-0-8-0-10-0-12-0-12-0-14-0-14-15--8-8-8-8--10-10-10-10--12-12-12-12--|
G |-7-0-8-0-10-0-12-0-12-0-14-0-14-15--8-8-8-8--10-10-10-10--12-12-12-12--|
C |-7-0-8-0-10-0-12-0-12-0-14-0-14-15--8-8-8-8--10-10-10-10--12-12-12-12--|

D |---------------------------------------------------------|
A |---------------------------------------------------------|
F |---------------------------------------------------------|
C |--15-14-12-10-12--15-14-12-10-12--15-14-12-10-8--8-10----|
G |--15-14-12-10-12--15-14-12-10-12--15-14-12-10-8--8-10----|
C |--15-14-12-10-12--15-14-12-10-12--15-14-12-10-8--8-10----|

BRIDGE:

D |-------------------------------------|
A |-------------------------------------|
F |-10-10-10--10-10-10--10-10-10-10-10--|
C |-8--8--8---10-10-10--0--0--0--0--0---|
G |-8--8--8---10-10-10--0--0--0--0--0---|
C |-8--8--8---10-10-10--0--0--0--0--0---|

                    or

D |---5---5---5---5---5---5---5---5------|
A |---6---6---6---6---6---6---6---6------|
F |---7---7---7---7---7---7---7---7------|
C |---7---7---7---7---7---7---7---7------|
G |---5---5---5---5---5---5---5---5------|
C |--------------------------------------|

     Then, when vocals start:

D |-----------------------------------13-13-12-12----|
A |--------------------------------------------------|
F |-10-10-10-12-9-9-10-12-10-10-12-14----------------| Repeat 4x
C |--------------------------------------------------|
G |--------------------------------------------------|
C |--------------------------------------------------|

Inter.Funda.Stifle heavy ending:

D |----------------------------------------------------------|
A |----------------------------------------------------------|
F |----------------------------------------------------------| Repeat 4x
C |--2-0-2-3-2---2-0-2-3-2---2-0-2-3-2---2-0-2-3-2-0-2-3-----|
G |--2-0-2-3-2---2-0-2-3-2---2-0-2-3-2---2-0-2-3-2-0-2-3-----|
C |--2-0-2-3-2---2-0-2-3-2---2-0-2-3-2---2-0-2-3-2-0-2-3-----|

Fables from a Mayfly ending:

D |-------------------------------------------------|
A |-------------------------------------------------|
F |-------------------------------------------------| Repeat 3x
C |--15-14-12-10-12--15-14-12-10-12--10-12-10-12----|
G |--15-14-12-10-12--15-14-12-10-12--10-12-10-12----|
C |--15-14-12-10-12--15-14-12-10-12--10-12-10-12----|

             then

D |-----------------------|
A |-----------------------|
F |-----------------------|
C |----10-12-----10-12----|
G |----10-12-----10-12----|
C |----10-12-----10-12----|


In live concerts, the heavy part from the I.F.S ending is played also at the beginning.

Well, this is the closest I can get. Enjoy!
Tap to rate this tab
# A B C D E F G H I J K L M N O P Q R S T U V W X Y Z