Song name
# A B C D E F G H I J K L M N O P Q R S T U V W X Y Z

Fair To Midland - Viceversa tab

Drop D tuning is what I usually use for this intro. You can go with Drop C aswell.

I think this is a guitar, could aswell be a synth. Anywho, here's where to play it:
|-----------------------------------------------------------------------------|
|-15-15--15-15-15--15-14-14--14-14-14--14-12-12--12-12-12--12-12-12--12-12-14-|
|-----------------------------------------------------------------------------|
|-----------------------------------------------------------------------------|
|-----------------------------------------------------------------------------|
|-----------------------------------------------------------------------------|

|------------------------------------------------------|
|-15-15--15-15-15--15-14-14--14-14-14--14-12~~~~-------|
|------------------------------------------------------|
|------------------------------------------------------|
|------------------------------------------------------|
|------------------------------------------------------|

Guitar 2:
|------------------------------------------------------|
|------------------------------------------------------|
|------------------------------------------------------|
|-5-5--5-5-5--5-4-4--4-4-4--4-2-2--2-2-2--2-2-2--2-2-4-|
|-5-5--5-5-5--5-4-4--4-4-4--4-2-2--2-2-2--2-2-2--2-2-4-|
|-5-5--5-5-5--5-4-4--4-4-4--4-2-2--2-2-2--2-2-2--2-2-4-|

|------------------------------------------------------|
|------------------------------------------------------|
|------------------------------------------------------|
|-5-5--5-5-5--5-4-4--4-4-4--4-2~~~---------------------|
|-5-5--5-5-5--5-4-4--4-4-4--4-2~~~---------------------|
|-5-5--5-5-5--5-4-4--4-4-4--4-2~~~---------------------|


|-12-11-9--8--6--4--6--8--9--2-------------------------|
|------------------------------------------------------|
|------------------------------------------------------|
|------------------------------------------------------|
|------------------------------------------------------|
|------------------------------------------------------|

|-12-11-9--8--6--4--6~~~-------------------------------|
|------------------------------------------------------|
|------------------------------------------------------|
|------------------------------------------------------|
|------------------------------------------------------|
|------------------------------------------------------|

And then comes the verse.
Tap to rate this tab
# A B C D E F G H I J K L M N O P Q R S T U V W X Y Z