Guitaretab - guitar tabs
Song name
# A B C D E F G H I J K L M N O P Q R S T U V W X Y Z

Fair To Midland - Informative Timeline tab

Informative Timeline
Fair To Midland
Carbon Copy Silver Lining

Tuning: CGCGCC
[ Tab from: http://www.guitaretab.com/f/fair-to-midland/260747.html ]
Intro
C|-5---5---5---5------------------------------------------|
C|-3---3---3---0------------------------------------------|
G|-5---5---5---5------------------------------------------|
C|-0---0---3---0------------------------------------------|
G|-5---0---3---0------------------------------------------|
C|-----5---3---0------------------------------------------|
   C   E   D   C
Verse
C|--------5-----------5-----------5-||---||---||---||
C|------3---3-------3---3-------3---||---||---||---||
G|----5-------5---5-------5---5-----||---||---||---||
C|--------------0-------------------||---||---||---||
G|----------------------------------||---||---||---||
C|-0--------------------------------||-5-||-3-||-0-||

or hammer the 5 on the B string...

C|--------5-----------------------5-------------------------|
C|------3---3-------3h5p3-------3---------------------------|
G|----5-------5---5-------5---5-----------------------------|
C|--------------0-------------------------------------------|
G|----------------------------------------------------------|
C|-0--------------------------------------------------------|

Thats pretty much the whole song...
The highest not is on a Bb on the 10th fret of the high E (or B),
During the E arpeggio thing (2nd Bar).
The || means repeat, but I think he just messes around with those
notes, and the high Bb

Any questions, comments or corrections, email stclark@shaw.ca
Tabbed By Steve
Related for Informative Timeline tab
Informative Timeline chords by Fair To Midland