Song name
# A B C D E F G H I J K L M N O P Q R S T U V W X Y Z

Fair To Midland - Kyla Cries Cologne tab

-------------------------------------------------------------------------------
                             Kyla Cries Cologne - Fair To Midland
-------------------------------------------------------------------------------
Tabbed by: Jeff Cameron
Email: jcameron99@gmail.com
4/30/2013

Hereís the complete and correct way to play this amazing song.

Tuning: CGCGCc

Intro, clean                    Repeat 2x, play first 2 measures on 3rd repeat
c|------------------------------------------|
C|------------------------------------------|
G|-----------13-------------12--------------|
C|-----12-------------12-------------12-----|
G|--13----13-------13----13-------13--------|
C|------------------------------------------|

c|------------------------------------------|
C|------------------------------------------|
G|-----------10-------------12--------------|
C|-----10-------------10-------------10-----|
G|--12----12-------12----12-------12--------|
C|------------------------------------------|

c|------------------------------------------|
C|------------------------------------------|
G|-----------15-------------13--------------|
C|-----13-------------13-------------13-----|
G|--15----15-------15----15-------15--------|
C|------------------------------------------|

c|------------------------------------------|
C|-----------17-------------17--------------|
G|------------------------------------------|
C|-----19-------------19-------------19-----|
G|--20----20-------20----20-------20--------|
C|------------------------------------------|


Verse, distortion               Repeat 4x
c|------------------------------------------|
C|------------------------------------------|
G|------------------------------------------|
C|--3h5--5--5-3/5--5--5-8p5--5-5\3-3-3------|
G|--3h5--5--5-3/5--5--5-8p5--5-5\3-3-3------|
C|--3h5--5--5-3/5--5--5-8p5--5-5\3-3-3------|

c|------------------------------------------|
C|------------------------------------------|
G|------------------------------------------|
C|--3h5-3\1-1-1--------1p0-1h3-3-3----------|
G|--3h5-3\1-1-1--------1p0-1h3-3-3----------|
C|--3h5-3\1-1-1--------1p0-1h3-3-3----------|


Pre-Chorus, distortion
c|-----------------------------------------------------------------|
C|--1111-1111-1111-5533-3333-3333-3333-5555-4444-4444-4444-4444----|
G|--xxxx-xxxx-xxxx-xxxx-xxxx-xxxx-xxxx-xxxx-xxxx-xxxx-xxxx-xxxx----|
C|--1111-1111-1111-5533-3333-3333-3333-5555-4444-4444-4444-4444----|
G|--(continuous 16th notes)----------------------------------------|
C|-----------------------------------------------------------------|

c|--------------------|
C|--------------------|
G|--------------------|
C|--5--7--8--3--------|
G|--5--7--8--3--------|
C|--5--7--8--3--------|


Chorus, distortion              Repeat 2x
c|----------------------------------------|
C|----------------------------------------|
G|-(all 1st fret)-------------------------|
C|--1-1-1-11-1-11--------3-3-3-33-3-33----|
G|--1-1-1-11-1-11--------3-3-3-33-3-33----|
C|--1-1-1-11-1-11--------3-3-3-33-3-33----|

c|---------------------------------------------------------------------------|
C|---------------------------------------------------------------------------|
G|---------------------------------------------------------------------------|
C|--10--------------------------------------10h12-12-12-12----12p0-----------|
G|--10-(16th notes, 6 beats, 24x total)-----10h12-12-12-12----12p0-----------|
C|--10--------------------------------------10h12-12-12-12----12p0-----------|

Post-Chorus
c|-------------------------------------------------|
C|-------------------------------------------------|
G|-------------------------------------------------|
C|--1--1p0--0h1--1p0--0h1--1p0--3--3p1--1h3--------|
G|--1--1p0--0h1--1p0--0h1--1p0--3--3p1--1h3--------|
C|--1--1p0--0h1--1p0--0h1--1p0--3--3p1--1h3--------|


Verse 2x

Pre-Chorus 1x

Chorus 2x

Post-Chorus 1x


Bridge Pt.1, Dist.      Repeat 4x
c|----------------------------------------|
C|----------------------------------------|
G|----------------------------------------|
C|--3h5-5-0----0h1----1/5----5-3----------|
G|--3h5-5-0----0h1----1/5----5-3----------|
C|--3h5-5-0----0h1----1/5----5-3----------|

c|----------------------------------------|
C|----------------------------------------|
G|----------------------------------------|
C|--5p0-5-0----0h1----1/5----5-3-3--------|
G|--5p0-5-0----0h1----1/5----5-3-3--------|
C|--5p0-5-0----0h1----1/5----5-3-3--------|


Bridge Pt.2, Dist.      Repeat 4x
c|---------------------------------------------------------|
C|---------------------------------------------------------|
G|---------------------------------------------------------|
C|--5-0----0h3----3h5-5-5----5-0----0h3----3h5-5-5---------|
G|--5-0----0h3----3h5-5-5----5-0----0h3----3h5-5-5---------|
C|--5-0----0h3----3h5-5-5----5-0----0h3----3h5-5-5---------|

c|--------------------------------------------------|
C|--------------------------------------------------|
G|--------------------------------------------------|
C|--5-0----0h3----3h5-5-5----5-0----5-0----8\-------|
G|--5-0----0h3----3h5-5-5----5-0----5-0----8\-------|
C|--5-0----0h3----3h5-5-5----5-0----5-0----8\-------|


Pre-Chorus 1x

Chorus 4x

Post-Chorus 1x

Thatís it, good luck and enjoy!

| /  slide up
| \  slide down
| h  hammer-on
| p  pull-off
| ~  vibrato
| +  harmonic
| x  Mute note
===============================================================================
Tap to rate this tab
# A B C D E F G H I J K L M N O P Q R S T U V W X Y Z