Song name
# A B C D E F G H I J K L M N O P Q R S T U V W X Y Z

Fair To Midland - Dance Of Manatee tab

Help us improve GuitareTab! Take a short survey!
Sorry could only figure out the intro
Standard tuning

|-------------------------------------------------------------------|
|--------------5--------------------------5-------------------------|
|--------------5-----1212121212-11--------5-----12121211---9-12-11-9|
|-----------5--3--3---------------12---5--3--3----------12----------|
|-----------5-----3--------------------5-----3----------------------|
|-----------3-----1--------------------3-----1----------------------|

|-----------------------------------------------------------||
|-----5--------------------------3--------------------------||
|-----5-----1212121212-11-14-----5-----12121211---9-12-11-9-||
|--5--3--3--------------------5--5--3----------12-----------||
|--5-----3--------------------5-----3-----------------------||
|--3-----1--------------------3-----1-----------------------||

Sorry thats all I could figure out the rest is hard to figure out.
Related for Dance Of Manatee tab