Song name
# A B C D E F G H I J K L M N O P Q R S T U V W X Y Z

Fairmont - Artemis tab

-----------------------------------------------------------------------------
			     "Artemis" - Fairmont
-----------------------------------------------------------------------------
Tabbed by:crimsonghost138
Email:sk8r01@swbell.net
Tuning:Standard

| /  slide up
| \  slide down
| h  hammer-on
| p  pull-off
| ~  vibrato
| +  harmonic
| x  Mute note

*Note that for this song, they used an acoustic and electric*

Guitar1 parts (acoustic)

e|--------------------------------------------------------------------------|
B|--------------------------------------------------------------------------|
G|--------------------------------------------------------------------------|
D|--7----9-----11-----9-----------------------------------------------------|
A|--7----9-----11-----9-----------------------------------------------------|
E|--5----7-----9------7-----------------------------------------------------|


e|--------------------------------------------------------------------------|
B|--------------------------------------------------------------------------|
G|--------------------------------------------------------------------------|
D|--2-----9-----7-----9-----7-----9-----11----------------------------------|
A|--2-----9-----7-----9-----7-----9-----11----------------------------------|
E|--0-----7-----5-----7-----5-----7-----9-----------------------------------|


e|--------------------------------------------------------------------------|
B|--------------------------------------------------------------------------|
G|--------------------------------------------------------------------------|
D|--2-----7-----9-----7-----------------------------------------------------|
A|--2-----7-----9-----7-----------------------------------------------------|
E|--0-----5-----7-----5-----------------------------------------------------|


e|--------------------------------------------------------------------------|
B|--------------------------------------------------------------------------|
G|--------------------------------------------------------------------------|
D|--2-----9-----7-----11----------------------------------------------------|
A|--2-----9-----7-----11----------------------------------------------------|
E|--0-----7-----5-----9-----------------------------------------------------|

e|--------------------------------------------------------------------------|
B|--------------------------------------------------------------------------|
G|--------------------------------------------------------------------------|
D|--14----------------------------------------------------------------------|
A|--x-----------------------------------------------------------------------|
E|--12----------------------------------------------------------------------|

*LISTEN TO THE SONG FOR STRUMMING...



Guitar2(electric)

e|--12--12--14--14--14--16--14--12h14---------------------------------------|
B|----12--12--12--12--12----------------------------------------------------|
G|--------------------------------------------------------------------------|
D|--------------------------------------------------------------------------|
A|--------------------------------------------------------------------------|
E|--------------------------------------------------------------------------|


e|--------------------------------------------------------------------------|
B|--------------------------------------------------------------------------|
G|--------------------------------------------------------------------------|
D|--2-----9-----7-----11----------------------------------------------------|
A|--2-----9-----7-----11----------------------------------------------------|
E|--0-----7-----5-----9-----------------------------------------------------|


e|--------------------------------------------------------------------------|
B|--5--9--7--5/12--10--9--7--12--10--9--7--5h7-5----------------------------|
G|--------------------------------------------------------------------------|
D|--------------------------------------------------------------------------|
A|--------------------------------------------------------------------------|
E|--------------------------------------------------------------------------|

    Listen for strumming...
e|--0-----------------------------------------------------------------------|
B|--5-----------------------5h7-5---------12--10--9--7--5h7-5---------------|
G|--------------------------------------------------------------------------|
D|--------------------------------------------------------------------------|
A|--------------------------------------------------------------------------|
E|--------------------------------------------------------------------------|
                            ^play 4 times 

=============================================================================
Tap to rate this tab
# A B C D E F G H I J K L M N O P Q R S T U V W X Y Z