Faith Hill - Like We Never Loved At All tab

This is my first tab I came up with. I found the chords on here, and I knew
there was something you could do with it to make it sound more like the song,
but I couldn't find anything, so I messed around with it for a little bit,
and I found it! I think it sounds pretty much like they play it in the song.

/ = slide

-2-3-2-0---|
-3-------3-|
-2---------|
-0---------|
-0---------|
-0---------| x2

-2-3-2-0-----------|
-3-------3/2-2/3-3-|
-2-----------------|
-0-----------------|
-0-----------------|
-0-----------------|

This can also be used for the verses. Hope this helps!
Tap to rate this tab
 
# A B C D E F G H I J K L M N O P Q R S T U V W X Y Z