Song name
# A B C D E F G H I J K L M N O P Q R S T U V W X Y Z

Faith Hill - If Im Not In Love tab

>>ei guyz...sobrang 1st tym ko kumapa ng song..pls rate..senxa na kng my mali..


e|----------3--2--0--------------------------------------------------2------------|
b|-3------3-----------3------------------3---1--------------------3------3--------|
g|------0------------------0----------0--------------0---------2------------------|
d|---------------------------------2------------------------0---------------------|
a|-------------------------2-------------------------3----------------------------|
E|-3------------------------------------------------------------------------------|

e|----------3--2--0------------------------------------------------------------|
b|-3------3-----------3------------------3---1---------------------------------|
g|------0------------------0----------0--------------0-------------------------|
d|---------------------------------2-------------------------------------------|
a|-------------------------2-------------------------3-------------------------|
E|-3---------------------------------------------------------------------------|

>> hanggang dito po muna....tapusin ko lng..update q nlng toh...if you want pki mail 
add me sa friendster...


-  calnet17@yahoo.com   -

tnx y'all!! *peace out!
Tap to rate this tab
# A B C D E F G H I J K L M N O P Q R S T U V W X Y Z