Faith Music Manila - Kahanga Hanga chords

Highlighted       Show chord diagrams
SONG TITLE : KAHANGA HANGA
BAND: FAITH MUSIC MANILA
TABBED BY: EMMANUEL A. CASTILLO
E-ADD: ayoko_pusa@yahoo.com


Intro : 

e|-5-5-7-9-10-9-7-5- ------|
B|------------------5------|
G|-------------------------|
D|-------------------------|
A|-------------------------|
E|-------------------------|


e|-5-5-7-9-10-9-7-9~-5-----|
B|-------------------------|
G|-------------------------|
D|-------------------------|
A|-------------------------|
E|-------------------------|

e|-5-5-7-9-10-9-7-9~-5-----|
B|-------------------------|
G|-------------------------|
D|-------------------------|
A|-------------------------|
E|-------------------------|

e|-5-5-7-9-10-9-7-9--------|
B|-------------------------|
G|-------------------------|
D|-------------------------|
A|-------------------------|
E|-------------------------|




A-D-E 4x
Kadakilaan ng Diyos na Hari
aking ihahayag
magpakailanman ang awit
ay magpasalamat
F#m-E 2x
sa Iyong ginawa
Makapangyarihan Mong gawa


A-D-E 4x
sa alinmang mga lahi
kadakilaan Moy makikita
Kahanga-hanga Mong pagkilos
aming inaasam
F#m-E 2x
ang Iyong ginawa
Makapangyarihan Mong gawa



Chorus:
D         E      F#m        D
Pupurihin Ka sa Iyo ay sasamba
D                        E      A
Walang hanggan pag-ibig Moy maranasan
D         E      F#m        D
Ikaw ang aming Dakilang Diyos
D                    
sa lahat ay ihahayag
D             E              A
Katapatan ant Kadakilaan Mo Hesus




THAT'S ALL..MY BROTHERS,
KEEP ON SERVING OUR LORD
JESUS CHRIST THE ORIGINAL SUPERMAN
Tap to rate this tab
 
# A B C D E F G H I J K L M N O P Q R S T U V W X Y Z