Faith Music Manila - Hari Ng Kaluwalhatian tab

Song Title: Hari ng Kaluwalhatian
Artist: Faith Music Manila
Album Title: Hari ng Kaluwalhatian
Tabbed by: Emmanuel A. Castillo
E-add: ayoko_pusa@yahoo.com


Intro: B-B-E-E-G#m-F#-E 

Guitar Intro:
e------------------------7-8---11-14-9-----------|
B-7~---s9-p5---5-7-9----------------------------|
G------------------------------------------------|
D------------------------------------------------|
A------------------------------------------------|
E------------------------------------------------|

Verse I:
B	      E   
Sa simula, Ikaw ang salita
G#m	 F#       E  E
Ngalan Moy kamangmangha.
	E	B
	Sa kalagitnaan ng unos, 
	E       B	
        kinalma Mo ang mga alon
        E	 B          F#
        Kapayapaan Mo ang dumaloy


Intro II: B-B-E-E
Guitar Intro:
e----------------------------------------------------------|
B-7~---s9-p5---5-7-9---0-2--------------------------------|
G----------------------------------------------------------|
D----------------------------------------------------------|
A----------------------------------------------------------|
E----------------------------------------------------------|

B	      E   
Sa simula, Ikaw ang salita
G#m	 F#       E  E
Ngalan Moy kamangmangha.
	E	B
	Sa kalagitnaan ng unos, 
	E       B	
        kinalma Mo ang mga alon
        E	 B          F#
        Kapayapaan Mo ang dumaloy



Chorus:
E		B		   F#
Ikaw ang Hari ng, Hari ng Kaluwalhatian
E     G#m	  F#
Diyos na Makapangyarihan.
E		 B			F#
Lahat ng mga labi at mga lahi silay magsasabing
E		G#m	   F#
Ikaw ang Haring Kaluwalhatian.


Intro II: B-B-E-E
Guitar Intro:
e----------------------------------------------------------|
B-7~---s9-p5---5-7-9---0-2--------------------------------|
G----------------------------------------------------------|
D----------------------------------------------------------|
A----------------------------------------------------------|
E----------------------------------------------------------|


Verse II:
Siyay nagmula sa walang hanggang Ama
Kaharian Niyay walang wakas.
	
Sa kalagitnaan ng unos, 
kinalma Mo ang mga alon
Kapayapaan Mo ang dumaloy


Chorus:
E		B		   F#
Ikaw ang Hari ng, Hari ng Kaluwalhatian
E     G#m	  F#
Diyos na Makapangyarihan.
E		 B			F#
Lahat ng mga labi at mga lahi silay magsasabing
E		G#m	   F#
Ikaw ang Haring Kaluwalhatian.



Bridge:
E         B
Inalay ang buhay Mo
E	      B
Sa Krus Ikaw ay pinako
E	     B	       F#
Ngunit kamatayan ay nabigo.
Tap to rate this tab
 
# A B C D E F G H I J K L M N O P Q R S T U V W X Y Z