Song name
# A B C D E F G H I J K L M N O P Q R S T U V W X Y Z

Faith Music Manila - Kahit Na Ilan tab

Song Title: Kahit na ilan
Artist: Faith Music Manila
Album Title: Kahanga-hanga
Tabbed by: Emmanuel A. Castillo
E-add: ayoko_pusa@yahoo.com

Intro: A-E-F#m-D
Guitar:
e--------------------------|
B----5------------5-7------|
G--6--4-1-2-4-6------4-2--|
D--------------------------|
A--------------------------|
E--------------------------|

e-------------2-57p5----|
B----5----2-5------------|
G--6--4------------------|
D------------------------|
A------------------------|
E------------------------|

Verse: A-E-F#m-D
Ikaw ang tanging Hari
Diyos ng bawatlahi
Ikaw ang liwanag ng buhay
sa Iyo nagmula ang dagat
langit,araw at bundok
kalakasan ko,sandigan ko
nasabisig mo

Chorus:A-E-F#m-D
Kahit na ilang mga hari, 
di maihahambing sa Iyo
sa katapatan Mo.
Kahit na ilang mga labi
di maitatapatsa Iyo
sa kalakasan Mo.

Verse: A-E-F#m-D
Ikaw ang aming Hari
Diyos ng bawatlahi
Ikaw ang liwanag ng buhay
sa Iyo nagmula ang dagat
langit,araw at bundok
kalakasan ko,sandigan ko
nasabisig mo

Chorus:A-E-F#m-D
Kahit na ilang mga hari, 
di maihahambing sa Iyo
sa katapatan Mo.
Kahit na ilang mga labi
di maitatapatsa Iyo
sa kalakasan Mo.


THAT'S ALL..MY BROTHERS,
KEEP ON SERVING OUR LORD
JESUS CHRIST THE ORIGINAL SUPERMAN
Tap to rate this tab
 
# A B C D E F G H I J K L M N O P Q R S T U V W X Y Z