Song name
# A B C D E F G H I J K L M N O P Q R S T U V W X Y Z

Faith No More - Hippie Jam Song tab

Help us improve GuitareTab! Take a short survey!
-------------------------------------------------------------------------------
			     Hippie Jam Song - Faith No More
-------------------------------------------------------------------------------
Tabbed by: Me!
Email:edaemus84@gmail.com

Tuning: Standard (EADGBe)
It helps if you think dirty, funkadelic thoughts while playing this. :D
Intro riff:
 
    (1/4 bend)
e|---------------------------------------------------------------------------|
B|---------------------------------------------------------------------------|
G|--------------------xx-----------------------------------------------------|
D|-7brp5-7p5-----5~---xx--7brp5-7p5-----5~--------|
A|---------------------------------------------------------------------------|
E|0x--------------------0----------------------------------------------------|

	Then there's no guitar in this bit, but I like to play this anyway:
B5: 7
    9   X8
    9,
 
C5: 8
    10  X4
    10, 

D5: 9
    11  X4
    11

	Now do the dirty little intro bit again, then the bit above again.
	Now comes the "Hallelujah, and lets eat..." bit, another one with no 
	guitar in it. BUT if you wanna show off, play this:
	And make sure you stress the pauses between the notes, if 
	you know what I mean :)
e|---------------------------------------------------------------------------|
B|---------------------------------------------------------------------------|
G|-------------3-3h5p3--------------3-3b6.5-:D-------------------------------|
D|------3-4-5-5-5-----5--------3-4-5-5---------------------------------------|
A|---3-5--------------------3-5----------------------------------------------|
E|3-6--------------------3-6-------------------------------------------------|
	^Repeat the first one, then at ^the end of the second one, go back to
	the intro riff.
	Then you do the above riff again, but this time, you go into the 
	sort of solo/bridge thing:
					
e|---------------------------------------------------------------------------|
B|---------------------------------------------------------------------------|
G|---------------------------------------------------------------------------|
D|--12p10h12-12p12h12-12p10-12p10---------------------------10--10-----------|
A|0x-----------------------------12-12--9(x3)10(3)11(3)12-12--12--12---------|
E|---------------------------------------------------------------------------|
	^Repeat^, then go into the jam solo (which I am not gonna tab :))
	So have fun with the song!
	This is my first tab, so if it doesn't make sense, feel free to
	abuse me. Because I probably deserve it :D

| /  slide up
| \  slide down
| h  hammer-on
| p  pull-off
| ~  vibrato
| +  harmonic
| x  Mute note, or if after (eg. 0x), sound the note but cut it short. :]
| =  Let ring
===============================================================================

Related for Hippie Jam Song tab