Guitaretab - guitar tabs
Song name
# A B C D E F G H I J K L M N O P Q R S T U V W X Y Z

Faith No More - Ashes To Ashes tab

Ashes to Ashes  By Faith No More
E [--------------------------------------------------------------------------------------------|
B[---------------------------------------------------------------------------------------------|
G[---------------------------------------------------------------------------------------------|
D[---------------------------------------------------------------------------------------------|
A[--------3^------5^----------------3^-----5^----------------3^------5^-------------3^------5--|
E[--3--3------5--------------3--3-------5--------------3--3-------5-----------3--3-------5-----|

[--------------------------------------------------------------------------|
[--------------------------------------------------------------------------|
[--------------------------------------------------------------------------|
[-----12-12-12-12--------12-12-12-12--------12-12-12-12-------12-12-12-12--|
[--------------------------------------------------------------------------|
[--------------------------------------------------------------------------|

[------------------------------------------------------|
[------------------------------------------------------|
[------------------------------------------------------|
[------------------------------------------------------|
[---------5--------5<---------------------5--------5<--|
[--3--3---------------------------3--3-----------------|

[---------------------------------------------------------------------------------|
[---------------------------------------------------------------------------------|
[---------------------------------------------------------------------------------|
[--3--3--3--3--3--3--3--3--3-----------------------10-10-10-10-10-10-10-10-10-10--|
[--3--3--3--3--3--3--3--3--3-----------------------10-10-10-10-10-10-10-10-10-10--|
[--3--3--3--3--3--3--3--3--3-----------------------10-10-10-10-10-10-10-10-10-10--|
Strum 16 times                                                      strum 16 times

[----------------------------------------------------------------|
[----------------------------------------------------------------|
[----------------------------------------------------------------|
[--3--3--3--3--3--3--3--3--3-------------8--8--8--8--8--8--8--8--|
[--3--3--3--3--3--3--3--3--3-------------8--8--8--8--8--8--8--8--|
[--3--3--3--3--3--3--3--3--3-------------8--8--8--8--8--8--8--8--|
Strum 16 times                                    strum 16 times
[--------------|
[--------------|
[--------------|
[--10--10--10--|
[--10--10--10--|
[--10--10--10--|

Repeat whole thing one more time
[ Tab from: http://www.guitaretab.com/f/faith-no-more/119567.html ]
[---------------------------------------------------------------------------------------|
[---------------------------------------------------------------------------------------|
[---------------------------------------------------------------------------------------|
[--0--0--3--0--3--12<----0--0--3--0--3--12<----0--0--3--0--3--12<----0--0--3--0--3--12--|
[--0--0--3--0--3--12<----0--0--3--0--3--12<----0--0--3--0--3--12<----0--0--3--0--3--12--|
[--0--0--3--0--3--12<----0--0--3--0--3--12<----0--0--3--0--3--12<----0--0--3--0--3--12--|
Slide from 12th fret down to 1st fret

Solo
[--12--10---------------------------------------------------------------------------|
[------------10-------12--12b--12-------------11--10------------10--9---9>14-14>20--|
[--------------------------------------9---9b--------------7-----9------------------|
[-----------------------------------------------------------------------------------|
[-----------------------------------------------------------------------------------|
[-----------------------------------------------------------------------------------|

There is a high pitched sound halfway through the pause which is
[--5^--|
[------|
[------|
[------|
[------|
[------|


Then repeat the chorus
[------------------------------------------------------------------------------------|
[------------------------------------------------------------------------------------|
[------------------------------------------------------------------------------------|
[--3--3--3--3--3--3--3--3--3-----------------------10--10--10-10-10-10-10-10-10--10--|
[--3--3--3--3--3--3--3--3--3--------------------10--10--10-10-10-10-10-10-10--10----|
[--3--3--3--3--3--3--3--3--3-----------------------10--10--10-10-10-10-10-10-10--10--|
Strum 16 times                                                         strum 16 times

[----------------------------------------------------------------|
[----------------------------------------------------------------|
[----------------------------------------------------------------|
[--3--3--3--3--3--3--3--3--3-------------8--8--8--8--8--8--8--8--|
[--3--3--3--3--3--3--3--3--3----------8--8--8--8--8--8--8--8----|
[--3--3--3--3--3--3--3--3--3-------------8--8--8--8--8--8--8--8--|
Strum 16 times                                         strum 16 times

[--------------|
[--------------|
[--------------|
[--10--10--10--|
[--10--10--10--|
[--10--10--10--|


Then amplify this with slight distortion
[---------------------------------------------------------------------------------------|
[---------------------------------------------------------------------------------------|
[---------------------------------------------------------------------------------------|
[--0--0--3--0--3--12<----0--0--3--0--3--12<----0--0--3--0--3--12<----0--0--3--0--3--12--|
[--0--0--3--0--3--12<----0--0--3--0--3--12<----0--0--3--0--3--12<----0--0--3--0--3--12--|
[--0--0--3--0--3--12<----0--0--3--0--3--12<----0--0--3--0--3--12<----0--0--3--0--3--12--|

Tabbed by faith no more fanatic
If you have questions/ improvements then email me at nerv_specialist@hotmail.com

< Slide Down
> Slide Up
^ Bend
Related for Ashes To Ashes tab