Song name
# A B C D E F G H I J K L M N O P Q R S T U V W X Y Z

Faith No More - Collision tab

Artist:faith no more
Song: collision
album: album of the year
tabbed by: mr_munners@hotmail.com


Chorus
-------------------------------------|
-------------------------------------|
-------------------------------------|
------5---2---2----------5---2---2---|
------5---2---2----------5---2---2---| x2
------3---0---0----------3---0---0---|

--------------------------------|
--------------------------------|
--------------------------------|
------5---------5---------5--7--|
------5---------5---------5--7--| x3
------3--0--0---3--0--0---3--5--|

------------|
------------|
------------|
---4--4-----|
---4--4-----| Guitar slides out
---2--2-----|

Verse BASS ONLY

Pre chorus -4 times
------------------------------------------------------------|
------------------------------------------------------------|
------------------------------------------------------------|
---5---5---5----------------------------------2-------------|
---3---3---3----4-----4-2-4---4-2-4----4-2-4--0--4-2--------|
----------------2-----2-0-2---2-0-2----2-0-2-----2-0--------|

Verse BASS ONLY

Pre chorus -4 times
------------------------------------------------------------|
------------------------------------------------------------|
------------------------------------------------------------|
---5---5---5----------------------------------2-------------|
---3---3---3----4-----4-2-4---4-2-4----4-2-4--0--4-2--------|
----------------2-----2-0-2---2-0-2----2-0-2-----2-0--------|

2nd and 3rd Chorus
-------------------------------------|
-------------------------------------|
-------------------------------------|
------5---2---2----------5---2---2---|
------5---2---2----------5---2---2---| x2
------3---0---0----------3---0---0---|


-------------------------------|
-------------------------------|
-------------------------------|
------5---------5---------5--7-|
------5---------5---------5--7-| x3
------3--0--0---3--0--0---3--5-|

----------------------------|
----------------------------|
----------------------------|
-----8---5---7--7-----------|
-----6---3---5--5-----------| x4
----------------------------|
Tap to rate this tab
# A B C D E F G H I J K L M N O P Q R S T U V W X Y Z