Song name
# A B C D E F G H I J K L M N O P Q R S T U V W X Y Z

Faith No More - Helpless tab

Artist: faith no more
song: helpless
album: album of the year
tabbed by: mr_munners@hotmail.com

Intro: (rhythm not shown)

------------------|
------------------|
--9----7------10--|
--9----7------10--|
--7----5------8---|
------------------|

Verse:

Use the following chord progression for all the verses:

E, D, F

Lyrics:

E           D            F
 Day is warm, I hear
                        E
The wind in the trees
                 D               F
I know I'll never, never be
 E            D              F
The wind is soft tonight
                 E
The tide is low
                   D
Now I know the way
     F
I never felt better now


This the goes to the bridge…

This uses the following chord progression:

G, F, G, F, G, F, G, E

Pre-chorus:

Repeat this progression…

E, F

Chorus: (rhythm not shown)

-----------------------------|
-----------------------------|
---2----4----5---------------|
---2----4----5---------------|
---0----2----3---------------|
-----------------------------|
Tap to rate this tab
 
# A B C D E F G H I J K L M N O P Q R S T U V W X Y Z