Song name
# A B C D E F G H I J K L M N O P Q R S T U V W X Y Z

Faith No More - Easy tab

-------------------------------------------------------------------------------
			     Easy - Faith no more
-------------------------------------------------------------------------------
Tabbed by: Piotrek Bryniarski
Email: bryniek_xl@wp.pl

Tuning: A string corresponds to first sound heard in that song.
I didn't write bends, pull offs and other things leaving that your own interpretetion.
Have fun

e|-5-5-4-4-22----------------------------------------------------------------|
B|-2-2-2-2-33--5-5-----------------------------------------------------------|
G|-2-2-1-1-22--4-4-----------------------------------------------------------|
D|------2------2-2-----------------------------------------------------------|
A|0-0-4---2------------------------------------------------------------------|
E|-----------00-0------------------------------------------------------------|

e|---------------------------------------------------------------------------|
B|---------33----------------------------------------------------------------|
G|-------42222---------------------------------------------------------------|
D|-------42222---------------------------------------------------------------|
A|-------20--0---------------------------------------------------------------|
E|---------------------------------------------------------------------------|
  Sunday Mo-o-oorning...
e|-3-33---00--0-------32-3-5-------------------------------------------------|
B|-3-33---00--0-------32-3-5-------------------------------------------------|
G|--------------------54-5-7-------------------------------------------------|
D|-5-55---22--2--------------------------------------------------------------|
A|--------------------32-3-5-------------------------------------------------|
E|3-3--320--00-0-------------------------------------------------------------|
  I want to be high...	
e|--------17-----------------------------------------------------------------|
B|---------------------------------------------------------------------------|
G|-----14--------------------------------------------------------------------|
D|---------------------------------------------------------------------------|
A|14-12-------14--12--12-----------------------------------------------------|
E|---------------------------------------------------------------------------|
  Solo
e|-----14--------------------------------------------------------------------|
B|--------13-----------------------------------------------------------------|
G|-----------14-12-11-9----11------------------------------------------------|
D|----------------------11---11-11-------------------------------------------|
A|14-12----------------------------------------------------------------------|
E|---------------------------------------------------------------------------|

e|------14-12-14-------------------------------------------------------------|
B|--------------14-17-14-17-14--------------------19--17---------------------|
G|-----------------------------14--------------------------------------------|
D|--------------------------------16--16--16--14-----------------------------|
A|14-12----------------------------------------------------------------------|
E|---------------------------------------------------------------------------|




************************************

| /   slide up
| \   slide down
| h   hammer-on
| p   pull-off
| ~   vibrato
| +   harmonic
| x   Mute note
| b   Bend
| pb  Pre-bend
| br  Bend release
| pbr Pre-bend release
| brb Bend release bend

************************************
Tap to rate this tab
# A B C D E F G H I J K L M N O P Q R S T U V W X Y Z