Faith No More - Easy tab

Hi,

I use this site for years but ive never had the time to contribute.
So here goes the Easy solo from Faith No More.

I've seen all the solos of this song in this site and there are not correct.

And this one is.

E--------------------13/16-------------------------------------------------------------|
B--------------------------------------------------------------------------------------|
G-------------13~~~~-------------------------------------------------------------------|
D--------------------------------------------------------------------------------------|
A-13b14b13-----------------13b14b13----------------------------------------------------|
E----------16------------------------16-16~~~~-16/1------------------------------------|


E--------------------------------------------------------------------------------------|
B-------------/18----------------------------------------------------------------------|
G-----------------/17--13--------------------------------------------------------------|
D-------------------------16-15-13~---15-13--------------------------------------------|
A-13b14b13--------------------------15------15--13h15-x5-------------------------------|
E----------16--------------------------------------------------------------------------|

E--------------------13/16-------------------------------------------------------------|
B--------------------------------------------------------------------------------------|
G-------------13~~~~-------------------------------------------------------------------|
D--------------------------------------------------------------------------------------|
A-13b14b13-----------------13b14b13----------------------------------------------------|
E----------16------------------------16-16~~~~-16/1------------------------------------|

E---------------------------------------------------------------------------------------|
B--------------18-16-18--------16-13-13-------------------------------------16b18b16~~--|
G------------------------15b17----------15-13-------------------------------------------|
D---------------------------------------------15~-13h15r13h15-13h15-13~~----------------|
A-13b14b13------------------------------------------------------------------------------|
E----------16---------------------------------------------------------------------------|

TBC
Tap to rate this tab
 
# A B C D E F G H I J K L M N O P Q R S T U V W X Y Z