Song name
# A B C D E F G H I J K L M N O P Q R S T U V W X Y Z

Faith No More - Jizzlobber tab

Rest 4 bars 

Riff 1

  1   2   3   4   1   2   3   4   1   2   3   4   1   2   3   4   
E-----------------------------------------------------------------
B-----------------------------------------------------------------
G-----------------------------------------------------------------
D-6-------5---------------6-------3---------------2---------------
A-4-------3---------------4-------1---------------2-------2-2-----
E-4-------3---------------4-------1---------------0-------0-0-----
                                                          pm-

  1 + 2 + 3 + 4 + 1 + 2 + 3 + 4 + 1 + 2 + 3 + 4 + 1 + 2 + 3 + 4 + 
E-----------------------------------------------------------------
B-----------------------------------------------------------------
G-----------------------------------------------------------------    x3
D-6-5---------------------7---11-10--------------16-------9-------
A-4-3---------------------5----9--8--------------14-------7-------
E-4-3---------------------5----9--8--------------14-------7-------

Riff 2                Riff 2 Fill

  1 + 2 + 3 + 4 +     1 + 2 + 3 + 4 + 
E-----------------]  -----------------
B-----------------]  -----------------
G-----------------]  -4----3---2------
D---------------3-]x7---5~---4~--3----
A---------1---3---]  -----------------
E-0-0-0-0---2-----]  -----------------
  pm-----

Riff 2 x8

  1 + 2 + 3 + 4 +
E-----------------
B-----------------
G-----------------
D----------------- x6 then
A-----------------
E-0-0-0-0-0-------        -0-0--
  pm------- 

Riff 3

  1 + 2 + 3 + 4 + 1 + 2 + 3 + 4 +     This is not part of Riff 3
E------------------------------------]-----------------------------------
B------------------------------------]-----------------------------------
G------------------------------------]-----------------------------------
D-6-----9-----8----11----10-------x3-]-6-----9-----8-----7-----6-6---6-6- 
A-4-----7-----6-----9-----8----------]-4-----7-----6-----5-----4-4---4-4-
E-4-----7-----6-----9-----8---0-0----]-4-----7-----6-----5-----4-4---4-4-
                              pm-

This part's confusing because there's no time structure, but I'll organize it by parts

E-------]-------]-------]-------]-------
B-------]-------]-------]-------]-------
G-------]-----x7]-----x8]-----x8]-----x8
D-5-----]-------]-------]-------]-------
A-3---5-]-3---5-]-1---3-]-3---5-]-1---3-
E---4---]---4---]---2---]---4---]---2---


  Part 1                           Part 2
E-------------      -------------] -------------      -------------]
B-----------x3 then -------------] -----------x3 then -------------]
G-------------      ---------7---] -------------      ---------5---]
D---------5---      -5---5-8---8-] ---------3---      -3---3-6---6-]
A-3---3-6---6-      ---6---------] -1---1-4---4-      ---4---------]
E---4---------      -------------] ---2---------      -------------]

Repeat parts 1 & 2

  Part 3            Part 4
E-------------      ---------------
B-----------x2      -------------x2
G-------------      ---------------
D---------7---      ----------9----
A-5---5-8---8-      -7---7-10---10-
E---6---------      ---6-----------

Riff 3 x4

  1 + 2 + 3 + 4 + 1 + 2 + 3 + 4 + 
E---------------------------------
B---------------------------------
G---------------------------2-----
D---2-1---4-3---2-1---------------  (Play 13 times and slowly fade away, starting after 
A-4-----2-----1-------4-3---------   the 5th time.)
E-------------------2-----1-------

With very low volume; barely audible
E-------------------------------------
B-------------------------------------
G-------------------------------------
D-6-----9-----8-----7-----6-6---6-6---
A-4-----7-----6-----5-----4-4---4-4---
E-4-----7-----6-----5-----4-4---4-4---

_________________________________________________________________________________________

Tap to rate this tab
# A B C D E F G H I J K L M N O P Q R S T U V W X Y Z