Song name
# A B C D E F G H I J K L M N O P Q R S T U V W X Y Z

Faith No More - Evidence chords

Highlighted       Show chord diagrams
Artist: Faith No More
Song:Evidence
Album:King for a Day, Fool for a Lifetime (1995)

Standard Tuning (E,A,D,G,B,D)

Am                Am/G             Am/Gb          Am/F           Em
-0------------    ----------       -----------    -----------    ----------
-1-----------     -1--------       -1---------    -1---------    ----------
-2-----------     -2--------       -2---------    -2---------    ----------
-2-----------     -2--------       -2---------    -2---------    -2--------
-0------------    ----------       -----------    -----------    -2--------
-0------------    -3--------       -2---------    -1---------    -0--------


Am                Gmaj            Dsus2/A          Fmaj 
-0---------       -3---------     -0---------      -1---------
-1---------       -3---------     -3---------      -1---------
-2---------       -0---------     -2---------      -2---------
-2---------       -0---------     -0---------      -3---------
-0---------       -2---------     -0---------      -3---------
-0---------       -3---------     -2---------      -----------   

Intro
Am   Am/G  Am/Gb  Am/F     Emin
 

Verse 1              
Am   Am/G  Am/Gb  Am/F     Emin
If you want to open your hole
Just put your head down and go
Step beside the piece of the circumstance
Got to wash away the taste of evidence
Wash it away

Bridge 
Am   Am/G  Am/Gb  Am/F     Emin
Evidence 3x
got a taste..... of evidence

Chorus
Am  Gmaj   Dsus2/A   Fmaj 
I didn't feel a thing
It didn't mean a thing
Look in the eye and testify
I didn't feel a thing


Verse 2
Am   Am/G  Am/Gb  Am/F     Emin
Anything you say, we know you're guilty
Hands above your head,
and you won't even feel me
You won't feel me


Chorus 
Am  Gmaj   Dsus2/A   Fmaj 
I didn't feel a thing
It didn't mean a thing
Look in the eye and testify
I didn't feel a thing


~Solo~

Bridge
Am  Gmaj   Dsus2/A   Fmaj 
evidence X3
got a taste..... of evidence

Chorus
Am  Gmaj   Dsus2/A   Fmaj 
I didn't feel a thing
You didn't mean a thing
Look in the eye and testify
I didn't feel a thing x2

~End~
Tap to rate this tab
# A B C D E F G H I J K L M N O P Q R S T U V W X Y Z