Song name
# A B C D E F G H I J K L M N O P Q R S T U V W X Y Z

Faith No More - Midlife Crisis tab

This sounds pretty good to me.

^ = accent (play note louder)
|----| = 4beats

E-|----|-----|-----|-----|
B-|----|-----|-----|-----|
G-|----|-----|-----|-2---|       main part
D-|-2--|-----|-4---|-2---|
A-|-2--|-2---|-2---|-0---|
E-|-0--|-3---|-----|-----|
    ^... ^...  ^...  ^...
 
E-|----|-----|-----|-----|
B-|----|-----|-----|-----|
G-|----|-----|-----|-----|       ending main part
D-|-2--|-----|-4444|44444|
A-|-2--|-2---|-2222|22222|
E-|-0--|-3---|-----|-----|
    ^... ^...  ^...  ^...

E-|----|--------|-----|---------|-----|---------|-- - - - - - - --|
B-|----|-3------|-5---|-3-------|-----|-3-------|-- - - - - - - --|
G-|----|-2--2---|-4---|-2---2---|-----|-2---2---|-- - - - - - - --|
D-|-2--|-0--2---|-----|-0---2---|-2---|-0---2---|-- - - - - - - 2-|
A-|-2--|----0---|-----|-----0---|-2---|-----0---|-2 2 2 2 2 2 2 --|
E-|-0--|--------|-----|---------|-0---|---------|-0 0 0 0 0 0 0 --|
    ^... ^. ..    ^...  ^.  ..    ^...  ^.  ..    . . . . . . . ^  

Hope it helps
Arno Van Den Bossche.
Tap to rate this tab
# A B C D E F G H I J K L M N O P Q R S T U V W X Y Z