Song name
# A B C D E F G H I J K L M N O P Q R S T U V W X Y Z

Faith No More - Midlife Crisis tab

This is my second tab and since there aren't that many tabs on this song I decided to 
submit a guitar and bass tab for this.
I was lazy so, to get rid of the repetition while writing down the tab I've included all 
that you need to know and when you repeat individual parts I'll refer to what you're playing.
If you see any errors or if a part isn't right please don't hesitate to correct them in 
the comments section, it will help out a lot! :]

Verse 1 (First Half):
"Go on and ring my neck..."
Bass
g|-----------------------------------------------|
D|-----------------------------------------------|
A|--------------------------2-2-2-2-2-2-0-0-0-0-0|
E|0-0-0-0-0-0-0-3-3-3-3-3-3----------------------|

g|------------------------------------------------------|
D|------------------------------------------------------|
A|-------------------------2-2-2-2-2-2-2-5---5---5---5-7|
E|0-0-0-0-0-0-0-3-3-3-3-3-3----------------7---7---7----|

Verse 1 (Second Half):
"Sense of security..."
Bass (Same as the first half )

Guitar:
(The guitarist usually uses an Ebow while performing this part live, but you can still 
pick the notes, it just won't be as sustained [unless you have a pedal])
e|7---9--7-7---5/3/11b-----|
b|-------------------------|
g|-------------------------|
D|-------------------------|
A|-------------------------|
E|-------------------------|

Chorus:
"You're perfect yes it's true..."
Bass
g|-----------------------------|    |-----------------------|
D|-----------------------------|    |-----------------------|
A|7-7-7-7-7-7-7-5-5-5-5-0-0-0-0| X3 |-----5-7--5-7-5--------| X2
E|-----------------------------|    |0--7------------7--0--0|


Guitar                                     |----PM----|    |----PM-------|
e|--------------||---------||---------| |---------------||---------------|
b|--------------||---------||---------| |---------------||---------------|
g|9--9--9-9-7-2-||-9--7--2-||-9--7--2-| |---------------||---------------|
D|9--9--9-9-7-2-||-9--7--2-||-9--7--2-| |2-------------2||2--------------|
A|7--7--7-7-5-0-||-7--5--0-||-7--5--0-| |2-------------2||2--------------|
E|--------------||---------||---------| |0-0-0-0-0-0-000||0-0-0-0-0-0-0--|

Post-Chorus:
Bass
(Same as first verse but only play it once)

Guitar
e|----------------------------||-----------------|
b|----------------------------||-----------------|
g|----x-x-----x-x-4---x-x-2---||----x-x-----x-x-4|
D|2---x-x-5---x-x-4---x-x-2---||2---x-x-5---x-x-4|
A|2---x-x-5---x-x-2---x-x-0---||2---x-x-5---x-x-2|
E|0---x-x-3---x-x-----x-x-----||0---x-x-3---x-x--|

Verse 2:
Bass
(Same as Verse 1)

Guitar
(1st half: Repeat Post-Chorus)
(2nd half: Repeat the 2nd half of Verse 1 or repeat Post-Chorus again)
Then play:
      PM
e|------------|
b|------------|
g|4-4-4-4-4-4-|
D|4-4-4-4-4-4-|
A|2-2-2-2-2-2-|
E|------------|

Chorus

Interlude
(Null)

Bridge:

Bass
g|------------------------|    |----------|
D|------------------------|    |----------|
A|--------------------2---| X2 |-2-2-2-2-2|
E|0---0-0-0-3---3-3-3-----|    |----------|

Guitar
      |-PM|     |-PM|              PM
e|------------------------|    |----------|
b|------------------------|    |----------|
g|--------------------4---|    |-4-4-4-4-4|
D|2---------5---------4---| X2 |-4-4-4-4-4|
A|2---------5---------2---|    |-2-2-2-2-2|
E|0---0-0-0-3---3-3-3-----|    |----------|

Chorus
(Repeat 'till fade)
Tap to rate this tab
# A B C D E F G H I J K L M N O P Q R S T U V W X Y Z