Song name
# A B C D E F G H I J K L M N O P Q R S T U V W X Y Z

Faith No More - Easy tab

-----------------------------------------
        Faith No More - Easy
-----------------------------------------

Just some basic electric stuff to play along with the song.

If you see a notes in brackets like this: (8) or (13)
It means hold them/sustain                (6)

The rest of it is the norm:
\ = Slide Down
/ = Slide Up
b = Bend
~ = Vibrato

Standard Tuning.

[INTRO] 
E ---------------------------------------|
B ---------------------------------------|
G ---------------------------------------|
D -------5---------8-8---------5---------|
A --6----3----8----6-6----6----3----(8)--|
E --4---------6-----------4---------(6)--|


[VERSE]
E --------------------------------------------------|
B --------------------------------------------------|
G --------------------------------------------------|
D -------5---------8-8---------5---------8-8-8-8-8--|
A --6----3----8----6-6----6----3----8----6-6-6-6-6--|
E --4---------6-----------4---------6---------------|

E ---------------------------------------|
B ---------------------------------------|
G ---------------------------------------|
D -------5---------8-8---------5---------|
A --6----3----8----6-6----6----3----(8)--|
E --4---------6-----------4---------(6)--|


[CHORUS]
E --------------------------------------------|
B --------------------------------------------|
G --------------------------------------------|
D -------5---------8-8---------5---------8-8--|
A --6----3----8----6-6----6----3----8----6-6--|
E --4---------6-----------4---------6---------|

E --------------------------------------------|
B --------------------------------------------|
G --------------------------------------------|
D -------5---------8-8------8----6------------|
A --6----3----8----6-6------6----4----8----6--|
E --4---------6-----------------------6----4--|


[BRIDGE]
E --------------------------------------------|
B --------------------------------------------|
G --------------------------------------------|
D --11---8---11---8---11---8---4-------8---6--|
A --9----6---9----6---9----6---2---4---6---4--|
E ---------------------------------2----------|


[SOLO]

E ------------------------------------------------------|
B ------------------------------------------------------|
G ----------(13)------15//------------------------------|
D ------------------------------------------------------|
A --13-------------------------13-----------------------|
E -----17-------------------------17-(17)---------13\\--|

E ------------------------------------------------------|
B ---------16-------------------------------------------|
G --------------15---13---------------------------------|
G ------------------------16---15---13---13-15---13-----|
A --13----------------------------------------------15~~|
E -----17-----------------------------------------------|

E ------------------------------------------------------|
B ------------------------------------------------------|
G ----------(13)------15//------------------------------|
D ------------------------------------------------------|
A --13-------------------------13-----------------------|
E -----17-------------------------17-(17)---------13\\--|

E ------------------------------------------------------|
G ---------16--------16--------16-----------------------|
B --------------15--------15b-------15---15-13----------|
D ---------------------------------------------15-------|
A --13--------------------------------------------------|
E -----17-----------------------------------------------|

E ------------------------------------------------------|
B -------------------------------------18b---(16)---\\--|
G ------------------------------------------------------|
D --15b----15b-------15b---(13)-------------------------|
A ------------------------------------------------------|
E ------------------------------------------------------|


[CHORUS]
E --------------------------------------------|
B --------------------------------------------|
G --------------------------------------------|
D -------5---------8-8---------5---------8-8--|
A --6----3----8----6-6----6----3----8----6-6--|
E --4---------6-----------4---------6---------|

E --------------------------------------------|
B --------------------------------------------|
G --------------------------------------------|
D -------5---------8-8------8----6------------|
A --6----3----8----6-6------6----4----8----6--|
E --4---------6-----------------------6----4--|
Tap to rate this tab
# A B C D E F G H I J K L M N O P Q R S T U V W X Y Z