Song name
# A B C D E F G H I J K L M N O P Q R S T U V W X Y Z

Faith No More - Epic tab

-------------------------------------------------------------------------------
                             EPIC (PIANO CODA) - Faith No More
-------------------------------------------------------------------------------
Tabbed by: Phil
E-mail: phildonniaATyahoo.com

Tuning: Standard

e|----------------------------------|----------------------------------|
B|-------------0---3----------------|-------------------------0--------|
G|-----0-----------0----------------|-0---------------2----------------|
D|-2---------------2----------------|-2---------------2----------------|
A|---------2---------------2--------|---------2---------------2--------|
E|-0--------------------------------|----------------------------------|


e|----------------------------------|----------------------------------|
B|-----------------3-----------1p0--|-1--------------------------------|
G|-3-----------0--------------------|-------------4p2-4---2-------0----|
D|-----2----------------------------|----------------------------------|
A|-3---------------3----------------|-3---------------3----------------|
E|---------3---------------3--------|---------3---------------3--------|

(repeat 2 or 3 times)

e|-------------------------0--------|---------10--12-------------------|
B|-------------0---3----------------|-----12---------------------------|
G|-----0-----------0----------------|-12-------------------------------|
D|-2---------------2----------------|----------------------------------|
A|---------2------------------------|----------------------------------|
E|-0--------------------------------|----------------------------------|

Throughout, keep the bass strings ringing using the middle and ring fingers, and let the 
index and pinky fingers do the melody work. This can get tricky on measures 3-4; the 
initial figure on measure 3 looks like this:


+=+=+=+=+=+
| | | | | |
+-+-+-+-+-+
| | 1 | | |
+-+-+-+-+-+
2 3 | 4 | |
+-+-+-+-+-+
| | | | | |
+-+-+-+-+-+
| | | | | |
Tap to rate this tab
 
# A B C D E F G H I J K L M N O P Q R S T U V W X Y Z