Song name
# A B C D E F G H I J K L M N O P Q R S T U V W X Y Z

Faith No More - Easy tab

Title: Easy
Artist: Faith No More
Album: Angel Dust


E-------------------------|---------------------------------|
B-------------------------|---------------------------------|
G------------13----(13)//-|---------------------------------|
D-------------------------|---------------------------------|
A--13br-------------------|--13br---------------------------|
E--------16---------------|--------16--16-----16\\----------|

E-----------------------------------------------------------|
B------------16---------------------------------------------|
G----------------15--13-------------------------------------|
D------------------------16--15--13^^--13-15-13-------------|
A--13br-----------------------------------------15---15^^^^-|
E---------16------------------------------------------------|

E-------------------------|---------------------------------|
B-------------------------|---------------------------------|
G------------13----(13)//-|---------------------------------|
D-------------------------|---------------------------------|
A--13br-------------------|--13br---------------------------|
E--------16---------------|--------16--16-----16\\----------|

E-------------------------------------------------------------|
B------------16b------16--------------------------------------|
G----------------15------15b-15-15-13h15p13-------------------|
D--------------------------------------------15---------------|
A--13br-------------------------------------------------------|
E---------16--------------------------------------------------|

E-----------------------------------------------------------|
B-----------------------------16b(18)16^^^^-----------------|
G-----------------------------------------------------------|
D---15--15--------15p13-------------------------------------|
A-----------------------------------------------------------|
E-----------------------------------------------------------|

b=b
br=bend and release
h=hammer on
p=pull off
^=vibrato
//=slide up
\\=slide down
Tap to rate this tab
 
# A B C D E F G H I J K L M N O P Q R S T U V W X Y Z