Guitaretab - guitar tabs
Song name
# A B C D E F G H I J K L M N O P Q R S T U V W X Y Z

Faith No More - Easy tab

Date: Sun, 13 Apr 97 12:54:29 PDT
From: Tibor Risko 


-------------------------|----------------------|------
-------------------------|----------------------|------
------------13----(13)/--|----------------------|------
-------------------------|----------------------|------
--13br-11----------------|--13br--11--11--------|------
-------------------------|-----------------16\--|------


-------------12br------------------------------------------------
-------------------11br---9--------------------------------------
---------------------------11---10---8-----10---8----------------
---------------------------------------10----------10----^^^^^---
--13br-11--------------------------------------------------------
-----------------------------------------------------------------


-------------------------|--------------------------
-------------------------|--------------------------
-----------13------(13)/-|--------------------------
-------------------------|--------------------------
-13br-11-----------------|---13br-11-11-------------
-------------------------|-----------------13\------

-----------12br--11--12br-----------11--8--8------------|
---------------------------11b(12)------------11--9-----|
-----------------------------------------------------10-|
--------------------------------------------------------|
13br--11------------------------------------------------|
--------------------------------------------------------|

-------------12b(13)--11-----(11)\------------
----------------------------------------------
10--10----------------------------------------
--------13------------------------------------
----------------------------------------------
----------------------------------------------
[ Tab from: http://www.guitaretab.com/f/faith-no-more/6297.html ]
Related for Easy tab
×
Easy