Song name
# A B C D E F G H I J K L M N O P Q R S T U V W X Y Z

Faith No More - Stripsearch tab

artist:faith no more
Song: stripsearch
album: album of the year
tabbed by: mr_munners@hotmail.com
Tuning- standard

No guitar until this solo

--/12---\7--5--/10--7--5-5h7----\2--/5--0------------------------|
--------------------------------------------3--/7--5-0-----------|
-----------------------------------------------------------------|
-----------------------------------------------------------------|
-----------------------------------------------------------------|
-----------------------------------------------------------------|

-7--5--3--12--10--7--10b-(11)--9--10--7--5--2---------------------|
-----------------------------------------------0------------------|
------------------------------------------------------------------|
------------------------------------------------------------------|
------------------------------------------------------------------|
------------------------------------------------------------------|

No more guitar until this bit at the end (repeat)

C#5
-----------------------------------------------------------------------|
-----------------------------------------------------------------------|
---6-6-66-6-66-6--6-6-66-6-66-6--6-6-66-6-66-6-------------------------|
---6-6-66-6-66-6--6-6-66-6-66-6--6-6-66-6-66-6-------------------------|
---4-4-44-4-44-4--4-4-44-4-44-4--4-4-44-4-44-4-------------------------|
-----------------------------------------------------------------------|
pm - - --   --    - - --   --    - - --   --

End on C#5
Tap to rate this tab
# A B C D E F G H I J K L M N O P Q R S T U V W X Y Z