Song name
# A B C D E F G H I J K L M N O P Q R S T U V W X Y Z

Faith No More - Mouth To Mouth tab

Artist: Faith no more
song: mouth to mouth
album: album of the year
tabbed by: mr_munners@hotmail.com


Intro:
(Guitar I)

--------------------------------------------------------------------|
--------------------------------------------------------------------|
--------------------------------------------------------------------|
--0--0--2--7----6----6----6--0--0--2--7-----------------------------|
--------------------------------------------------------------------|
--------------------------------------------------------------------|

(Guitar II)
-----------------------------------------------------------------------------|
-----------------------------------------------------------------------------|
------------------------------------------------10-10-10-10-10---------------|
--99999999-888888-99999999-888888-9999999-10-10-10-10-10-10-10---------------|
------------------------------------------------8--8--8--8--8----------------|
-----------------------------------------------------------------------------|

Main riff: play once for main intro and for verses
---------------------------------------------------------------|
---------------------------------------------------------------|
---------------------------------------------------8--8-8-8-8--|
---------------------------------------------------8--8-8-8-8--|
--22-2-22-2-222-2-22-22-2-22-2-222-2-22-2-22-2-222-6--6-6-6-6--|
--00-0-00-0-000-0-00-00-0-00-0-000-0-00-0-00-0-000-------------|

Chorus:

--------------------------------------------------------------|
--------------------------------------------------------------|
--8-8-8-8-8-8-8-8-8-8-8-8-8-8-11\8-8-8-8-8-6/8-8-8-8-8-8------|
--8-8-8-8-8-8-8-8-8-8-8-8-8-8-11\8-8-8-8-8-6/8-8-8-8-8-8------|
--6-6-6-6-6-6-6-6-6-6-6-6-6-6-8-\6-6-6-6-6-4/6-6-6-6-6-6------|
--------------------------------------------------------------|
Tap to rate this tab
 
# A B C D E F G H I J K L M N O P Q R S T U V W X Y Z