Song name
# A B C D E F G H I J K L M N O P Q R S T U V W X Y Z

Faithful Darkness - In Shadow Lies Utopia tab

-------------------------------------------------------------------------------
			     In Shadows Lies Utopia - Faithful Darkness
-------------------------------------------------------------------------------
Tabbed by: Marshal
Email: mechanical_animal66@hotmail.com

Tuning: Drop C

So this is my very first tab. The only reason I took this task upon myself is the
 offensive lack of tabs on the web for this amazing band. I plan to work on more songs by
 them in the future, and any help and input from you guys is greatly appreciated.
Another thing, I could spend 30 minutes figuring out the exact time when to play
these riffs, and how many times each, but if you guys have 2 brain cells to rub together,
you can listen to the song and figure it out yourself as you play along. I'm not gonna hold
 your hand, this song is very simple. Enjoy, and please leave feedback.

RIFF 1

e|-----------------------------------------------------------------------------|
B|-----------------------------------------------------------------------------|
G|-----------------------------------------------------------------------------|
D|------7-------77------7-3-33---+--------7------77------7-3-33-5p3-2h3--------|
A|------5-------55------5-1-11-5-5--------5------55------5-1-11----------------|
E|-0000---00-00----0000--------5-----0000--00-00---0000------------------------|
   ....   .. ..    ....              ....  .. ..   ....

RIFF 2                        RIFF 3

e|---------------------------------------------------------------------------|
B|---------------------------------------------------------------------------|
G|---------------------------------------------------------------------------|
D|-----------------------------------7---------------------------------------|
A|-----------------------------------5---------------------------------------|
E|-00000000-00-000------------0000000-00-000---------------------------------|
   ........ .. ...            ....... .. ...

RIFF 4 (PRE-CHORUS)

e|---------------------------------------------------------------------------|
B|---------------------------------------------------------------------------|
G|-2-----2-----2-2-----2-----2-5-----5-----5-66666666------------------------|
D|-1-111-1-111-1-1-111-1-111-1-3-333-3-333-3-xxxxxxxx------------------------|
A|-1-111-1-111-1-1-111-1-111-1-3-333-3-333-3-44444444------------------------|
E|-1-111-1-111-1-1-111-1-111-1-3-333-3-333-3---------------------------------|
     ...   ...     ...   ...     ...   ...

RIFF 5 (CHORUS)

e|---------------------------------------------------------------------------|
B|---------------------------------------------------------------------------|
G|---9---10-9----9--10-9--22222222-55555555----------------------------------|
D|-0-x-0--x-x-00-x-0-x-x--11111111-33333333----------------------------------|
A|-0-7-0--8-7-00-7-0-8-7--11111111-33333333----------------------------------|
E|-0---0------00---0------11111111-33333333----------------------------------|

FILL AFTER FIRST CHORUS

e|---------------------------------------------------------------------------|
B|---------------------------------------------------------------------------|
G|---------------------------------------------------------------------------|
D|-0~------------------0~----------------------------------------------------|
A|-0~---00---00---00---0~----------------------------------------------------|
E|-0~---00---00---00---0~----------------------------------------------------|
        ..   ..   ..

| h  hammer-on
| p  pull-off
| ~  vibrato
| +  harmonic (squeel)
| x  muted notes (also dotted notes)
===============================================================================
Tap to rate this tab
# A B C D E F G H I J K L M N O P Q R S T U V W X Y Z