Song name
# A B C D E F G H I J K L M N O P Q R S T U V W X Y Z

Faithful Darkness - Fast I Fall tab

-------------------------------------------------------------------------------
			     FAST I FALL - Faithful Darkness
-------------------------------------------------------------------------------
Tabbed by: Marshal
Email: mechanical_animal66@hotmail.com

Tuning:DROP C

Another amazing song by an amazing band that doesn't get enough recognition.
This isn't 100%, its my interpretation. Considering it's only my second tab,
I'd say this is very close. All the riffs and solo in the song are here, 
follow along with the song and figure out how many times to play each riff.
Please comment if you see a mistake. Enjoy.

RIFF 1

e|---------------------------------------------------------------------------|
B|---------------------------------------------------------------------------|
G|---------------------------------------------------------------------------|
D|--------------------------------------------------------------8p7-5h7------|
A|---5-5h6--5-5h6h8--5-5h6--5---3-1---5-5h6--5-5h6h8--5-5h6--5---------------|
E|-00-0---00-0-----00-0---00-00-3-1-00-0---00-0-----00-0---00-00-------------|
   .. .   .. .     .. .   .. ..     .. .   .. .     .. .   .. ..

RIFF 2 VERSE

e|---------------------------------------------------------------------------|
B|---------------------------------------------------------------------------|
G|---------------------------------------------------------------------------|
D|------------------------------------------------------------------2h3------|
A|---------------------------------------------------------------------------|
E|-00-6p0-6p0-6p0-6p0-6p0-6p0-6p0-6h7-00-2p0-2p0-2p0-2p0-2p0-2p0-2p0---------|
   .. .   .   .   .   .   .   .       .. .   .   .   .   .   .   .

e|---------------------------------------------------------------------------|
B|---------------------------------------------------------------------------|
G|---------------------------------------------------------------------------|
D|---------------------------------------------------------------------------|
A|---------------------------------------------------------------------------|
E|-00-6p0-6p0-6p0-6p0-6p0-6p0-6p0-6h7-00-13p0-13p0-13p0-13p0-13p0-13p0-00-9ph|
   .. .   .   .   .   .   .   .       ..  .    .    .    .    .    .   ..

RIFF 3 PRE-CHORUS GUITAR 1

e|---------------------------------------------------------------------------|
B|---------------------------------------------------------------------------|
G|---------------------------------------------------------------------------|
D|---------------------------------------------------------------------------|
A|---------------------------------------------------------------------------|
E|-00-00-00-00-0000----------------------------------------------------------|
   .. .. .. .. .... 

RIFF 3 PRE-CHORUS GUITAR 2

e|---------------------------------------------------------------------------|
B|---------------------------------------------------------------------------|
G|-8-7--8-7-3-2--3-2-3-8-7--12-11--14-12-11----------------------------------|
D|-x-x--x-x-x-x--x-x-x-x-x--x--x---x--x--x-----------------------------------|
A|-6-5--6-5-1-0--1-0-1-6-5--10-9---12-10-9-----------------------------------|
E|---------------------------------------------------------------------------|

RIFF 4 CHORUS GUITAR 1

e|---------------------------------------------------------------------------|
B|---------------------------------------------------------------------------|
G|---------------------------------------------------------------------------|
D|---------------------------------------------------------------------------|
A|---------------------------------------------------------------------------|
E|-33333-33-33---33333-33-33---2222-2222---2222-0000-------------------------|


RIFF 4 CHORUS GUITAR 2

e|---------------------------------------------------------------------------|
B|---------------------------------------------------------------------------|
G|-10--9-10-\-12--7-7-7-\-10-9-5-5-5-\-7-------------------------------------|
D|-x---x-x--\-x---x-x-x-\-x--x-x-x-x-\-x-------------------------------------|
A|-8---7-8--\-10--5-5-5-\-8--7-3-3-3-\-5-------------------------------------|
E|---------------------------------------------------------------------------|

PRE-SOLO GUITAR 1

e|---------------------------------------------------------------------------|
B|-10-0-8-0-6-0-8-0-10-0-8-0-6-0-8-0-10-8-0-6-0-8-0-10-0-8-0-6-0-8-----------|
G|---------------------------------------------------------------------------|
D|---------------------------------------------------------------------------|
A|---------------------------------------------------------------------------|
E|---------------------------------------------------------------------------|

PRE-SOLO GUITAR 2

e|---------------------------------------------------------------------------|
B|---------------------------------------------------------------------------|
G|---------------------------------------------------------------------------|
D|-0~----7-8~-----7-0~----7-8~---8\10~---------------------------------------|
A|-0~----7-8~-----7-0~----7-8~---8\10~---------------------------------------|
E|-0~----7-8~-----7-0~----7-8~---8\10~---------------------------------------|

SOLO GUITAR 1

e|--------------------------------------------------17v-17-17v--13-15-17b-15-|
B|-18p15-15-17p13-13-15v-15-15v---18p15-15-20p17-17--------------------------|
G|---------------------------------------------------------------------------|
D|---------------------------------------------------------------------------|
A|---------------------------------------------------------------------------|
E|---------------------------------------------------------------------------|

e|-13--------------------------------------------------------------------------|
B|---15v-15-15-13-15-17b-15----------------17v-17-17--------18v-18-18------17--|
G|--------------------------17-14v------------------------------------15-17--14|
D|------------------------------------15-19------------15-19-------------------|
A|----------------------------------17---------------17------------------------|
E|-----------------------------------------------------------------------------|

e|-----------------------------------------------------------------------------|
B|---------------------------------------------------17-18v-17-18--20-17-------|
G|-19-0-17-0-15-0-14-0-21-0-17-0-15-0-14--//14v-14-17------------17------------|
D|-----------------------------------------------------------------------------|
A|-----------------------------------------------------------------------------|
E|-----------------------------------------------------------------------------|

e|---------------------------------------------------------------------------|
B|-//10-10\15v------18--------17---------------------------------------------|
G|-------------15-17------17------17v----------------------------------------|
D|---------------------14---14--14-------------------------------------------|
A|---------------------------------------------------------------------------|
E|---------------------------------------------------------------------------|


SOLO GUITAR 2

e|---------------------------------------------------------------------------|
B|---------------------------------------------------------------------------|
G|---------------------------------------------------------------------------|
D|---------------------------------------------------------------------------|
A|---------------------------------------------------------------------------|
E|-00-00-00-00-0000-00-00-00-00-0000-33-33-33-33-3333-33-33-32-22-5555-------|
   .. .. .. .. .... .. .. .. .. .... .. .. .. .. .... .. .. .. .. ....

e|---------------------------------------------------------------------------|
B|---------------------------------------------------------------------------|
G|---------------------------------------------------------------------------|
D|-----------------------------------------------------------------\5-5------|
A|-----------------------------------------------------------------\5-5------|
E|-00-00-00-00-0000-00-00-00-00-0000-33-33-33-33-3333-33-33-32-222-\5-5------|
   .. .. .. .. .... .. .. .. .. .... .. .. .. .. .... .. .. .. ...

| /  slide up
| \  slide down
| h  hammer-on
| p  pull-off
| ~  vibrato
| ph pinch harmonic
| x  Mute note (also dotted notes)
===============================================================================
Tap to rate this tab
# A B C D E F G H I J K L M N O P Q R S T U V W X Y Z