Faithless - Drifting Away tab

This is how I play the piano part from Drifting Away, the other tabs on here nearly get 
it, but this is how it sounds to me.


E|---------------------|---------------------|---------------------|---------------------|
B|---------------------|---------------------|---------------------|---------------------|
G|------7----5----7----|------7---------7----|------7----5----7----|-8----5--------------|
D|-5-------------------|-8---------7---------|-5-------------------|-----------8----7----|
A|---------------------|---------------------|---------------------|---------------------|
E|---------------------|---------------------|---------------------|---------------------|


E|---------------------|---------------------|---------------------|---------------------|
B|------8----6----8----|------8---------8----|------8---------8----|------8---------8----|
G|---------------------|-8---------7---------|-5-------------------|-5---------7---------|
D|-5-------------------|---------------------|-----------8---------|---------------------|
A|---------------------|---------------------|---------------------|---------------------|
E|---------------------|---------------------|---------------------|---------------------|


E|---------------------|---------------------|-6----5--------------|---------------------|
B|------8----6----8----|------8---------8----|-----------8----6----|---------------------|
G|---------------------|-8---------7---------|---------------------|-8----7----5---------|
D|-5-------------------|---------------------|---------------------|----------------8----|
A|---------------------|---------------------|---------------------|---------------------|
E|---------------------|---------------------|---------------------|---------------------|
Tap to rate this tab
 
# A B C D E F G H I J K L M N O P Q R S T U V W X Y Z