Song name
# A B C D E F G H I J K L M N O P Q R S T U V W X Y Z

Faithless - We Come One tab

|-----------------------------------------------------|
|-----------------------------------------------------|
|------6------5-----3---------------------------------|
|---3-------------------------------------------------|
|-1-------1------1--------x6--------------------------|
|-----------------------------------------------------|

|-----------------------------------------------------|
|-----------------------------------------------------|
|-3---5---6-------------------------------------------|
|---3---3---3-----------------------------------------|
|-------------1---x2----------------------------------|
|-----------------------------------------------------|
Tap to rate this tab
# A B C D E F G H I J K L M N O P Q R S T U V W X Y Z