Song name
# A B C D E F G H I J K L M N O P Q R S T U V W X Y Z

Faizal Tahir - Karma Acoustic tab

Artist: Faizal Tahir
Song: Karma Acoustic Live @ The Sessions
Language: Bahasa Malaysia
Tabbed by: Mie Badon
Email: mailmie@gmail.com
Refer to youtube: Karma - Faizal Tahir Live@The Sessions 
(http://www.youtube.com/watch?v=sOz9HjJZIak)

Tabbed using ears haha, pls comment to improvise 

|TUNE HALF STEP DOWN|


First, here the chord combination for the whole song

   F#  Bbm  A   C# Bsus2  B   G#  E    
eb|-2-|-1-|-5-|-4-|--2--|-2-|-4-|-0-|
Bb|-2-|-2-|-5-|-5-|--2--|-4-|-4-|-0-|
Gb|-3-|-3-|-6-|-6-|--4--|-4-|-5-|-1-|
Db|-4-|-3-|-7-|-6-|--4--|-4-|-6-|-2-|
Ab|-4-|-1-|-7-|-4-|--2--|-2-|-6-|-2-|
Eb|-2-|---|-5-|---|-----|---|-4-|-0-|



Intro:



eb|------------------------------------------------|
Bb|-----4---------------------4--------------------|
Gb|-----------4-------4----------------------------| X 1
Db|---6-----6-------6-------6-------7------9-------|
Ab|-4-----4-------6-------4-------7------9---------|
Eb|-------------4---------------5-----/7-----------|


verse:

   Seumur hidup memang tak mungkin, untuk aku  terus  bersama  mu
eb|---------------------------------------------------------------|
Bb|-------4-------------------------------4-----------------------|
Gb|---------------4-----------4-------------4---------------------| X 1
Db|----6-------6-----------6-----------6--------------7--------9--|
Ab|-4-------4-----------6-----------4--------------7--------9-----|
Eb|------------------4--------------------------5-------/7--------|



    Seumur hidup hanya untuk mu, menyakitkan, memuaskan  diri  mu
eb|---------------------------------------------------------------|
Bb|-------4-------------------------------4-----------------------|
Gb|---------------4-----------4-------------4---------------------| X 1
Db|----6-------6-----------6-----------6--------------7--------9--|
Ab|-4-------4-----------6-----------4--------------7--------9-----|
Eb|------------------4--------------------------5-------/7--------|



F#    Bbm     A                 C#
Halalkan segala makan dan minum ku
F#     Bbm        A
Cari aku kira kau masih berani
Bsus2          B
Berdepan realiti

C#     G#  A
Hey! Hey! Jangan kau sentuh
F#             C#
Aku bukan boneka
G#   A
Hey! Kamulah kamu
F#             E
Aku bukan boneka
Bsus2  F#
Hey!  Kelak kau tahu
F#
Lewat hari mu



eb|------------------------------------------------|
Bb|-----4---------------------4--------------------|
Gb|-----------4-------4----------------------------| X 1
Db|---6-----6-------6-------6-------7------9-------|
Ab|-4-----4-------6-------4-------7------9---------|
Eb|-------------4---------------5-----/7-----------|



    Lima tahun dalam  kegelapan,    Hari  ini kau  bebas berjalan
eb|---------------------------------------------------------------|
Bb|-------4-------------------------------4-----------------------|
Gb|---------------4-----------4-------------4---------------------| X 1
Db|----6-------6-----------6-----------6--------------7--------9--|
Ab|-4-------4-----------6-----------4--------------7--------9-----|
Eb|------------------4--------------------------5-------/7--------|



    5  tahun  dalam  kebenaran,     Hari ini  hari  kamu dan aku
eb|---------------------------------------------------------------|
Bb|-------4-------------------------------4-----------------------|
Gb|---------------4-----------4-------------4---------------------| X 1
Db|----6-------6-----------6-----------6--------------7--------9--|
Ab|-4-------4-----------6-----------4--------------7--------9-----|
Eb|------------------4--------------------------5-------/7--------|

F#    Bbm     A                 C#
Halalkan segala makan dan minum ku
F#     Bbm        A
Cari aku kira kau masih berani
Bsus2          B
Berdepan realiti


C#     G#  A
Hey! Hey! Jangan kau sentuh
F#             C#
Aku bukan boneka
G#   A
Hey! Kamulah kamu
F#             E
Aku bukan boneka
Bsus2  F#
Hey!  Kelak kau tahu
F#
Lewat hari mu


Bsus2  Am        C#
Dan    karma kan mengambil tempat
E 
Menjemput kau pulang
Bsus2  Am       C# 
Ku     harapkan kau kembali


Bridge: C#-E-F#-A- (x2)   C#m 


C#     G#  A
Hey! Hey! Jangan kau sentuh
F#             C#
Aku bukan boneka
G#   A
Hey! Kamulah kamu
F#             E
Aku bukan boneka
Bsus2  F#
Hey!  Kelak kau tahu
F#
Lewat hari mu


C#     G#  A
Hey! Hey! Jangan kau sentuh
F#             C#
Aku bukan boneka
G#      A
Hey! Aku lah aku
F#                          
Aku lah aku
C#   G#    F#
Hey! Hey! Kelak kau tahu
F#
Lewat hari mu



eb|------------------------------------------------|
Bb|-----4---------------------4--------------------|
Gb|-----------4-------4----------------------------| X 1
Db|---6-----6-------6-------6-------7------9-------|
Ab|-4-----4-------6-------4-------7------9---------|
Eb|-------------4---------------5-----/7-----------|


Cheers mate !!!
Tap to rate this tab
 
# A B C D E F G H I J K L M N O P Q R S T U V W X Y Z