Song name
# A B C D E F G H I J K L M N O P Q R S T U V W X Y Z

Falak Shabir - Saajna tab

INTRO:-

|----------------------------------------------------------------------|
|--5-5-4-4-5-5-4-4-5-7-5-5-4-4-5--------4-5-5-4-4-5-5-4-4-5-7-5-5-4-4-5|
|-----------------------------------5-6--------------------------------|
|---------------------------------6------------------------------------|
|----------------------------------------------------------------------|
|----------------------------------------------------------------------|

|----------------------------------------------------------------------|
|--------7-9-9-7-7-9-9-7-7-9-10-9-9-7-7-9---9-7------------------------|
|----7-9----------------------------------------9-8--------------------|
|--8-------------------------------------------------------------------|
|----------------------------------------------------------------------|
|----------------------------------------------------------------------|

|----------------------------------------------------------------------|
|--5-5-4-4-5-5-4-4-5-7-5-5-4-4-5---------------------------------------|
|----------------------------------------------------------------------|
|----------------------------------------------------------------------|
|----------------------------------------------------------------------|
|----------------------------------------------------------------------|

Saaaajnaaaaaaaa.......

|----------------------------------------------------------------------|
|--5-5-4-4-5-5-4-4-5-7-5-5-4-4-5---------------------------------------|
|----------------------------------------------------------------------|
|----------------------------------------------------------------------|
|----------------------------------------------------------------------|
|----------------------------------------------------------------------|

saajnaaaaaaaaaa.......

then play the first two parts of the intro one more time...
and then the main song starts with the following chords:-

CHORDS:-

Dm                        C
Ek Tujh Ko Hi Bas Dekh Kar
Dm                      C
Bole Mujhko Hi Meri Nazar
Dm                           C
Tujhko Shaayad Nahi Hai  Khabar
A#                             C
Tujhko Jeete Hain Hum Kis Kadar
                  Dm
Jude Jo Tere Khwab Se..
                 A#
Toh Toote Hum Neend Se..
                   Dm
Yeh Kaisa Tera Ishq Hai..
  A#        C
Saajnaaaaaaa..
                        Dm
Tu Haathon Mein Toh Hain Mere..
                A#
Hai Kyun Nahi Lakeeron Mein..
                Dm
Yeh Kaisa Tera Ishq Hai..
  A#     C
Saajnaaaa..
 Dm
Tere Bina Kabhi
  A#
Raatein Na Ho Meri
  Dm
Tere Kareeb Hoon..
  A#           C
Mere Yeh  Din Sabhi...



   Dm
Tere Bina Kabhi..
   A#
Raatein Na Ho Meri
  Dm
Tere Kareeb Hoon..
  A#         C
Mere Yeh Din Sabhi..

                Dm
Jude Jo Tere Khwab Se..
                A#
Toh Toote Hum Neend Se..
                 Dm
Yeh Kaisa Tera Ishq Hai..
  A#       C
Saajnaaaaaaa..
                     Dm
Tu Haathon Mein Toh Hain Mere..
                A#
Hai Kyun Nahi Lakeeron Mein..
                Dm
Yeh Kaisa Tera Ishq Hai..
  A#     C
Saajnaaaaa..

Rest of the song is the same...
Most probably the intro is incorrect bcoz i found them by just listening to the song 
once,but i believe they are 90% correct...I hope you found it correct and learnt a lot but 
if you think there are any mistakes then send them to:- bhaisaresparsh132@gmail.com
Tap to rate this tab
 
# A B C D E F G H I J K L M N O P Q R S T U V W X Y Z