Song name
# A B C D E F G H I J K L M N O P Q R S T U V W X Y Z

Falco - Out Of The Dark tab

Artist: Falco
Song: Out Of The Dark

http://www.youtube.com/watch?v=ybBc6bmger8(Solo starts at 2:35)

SOLO:

e|-------------------------------------------------------------------|
B|------------------------------------------15b--15--13-12-----------|
G|--7b--7b-7b-7b-7r-p5---------------5-/12-----------------14~~--12\-|
D|----------------------7~~----5h-7----------------------------------|
A|-------------------------------------------------------------------|
E|-------------------------------------------------------------------|

e|-------------------------------------------------------|
B|--8br--5-------8br--5~~----15br--13--15--13--12--------|
G|-------------------------------------------------14~~--|
D|----------7~~------------------------------------------|
A|-------------------------------------------------------|
E|-------------------------------------------------------|

I think most of it is right ;)

Have fun^^
Tap to rate this tab
 
# A B C D E F G H I J K L M N O P Q R S T U V W X Y Z