Song name
# A B C D E F G H I J K L M N O P Q R S T U V W X Y Z

Falcon Destroyer Crew - Help Me tab

Falcon Destroyer Crew
Help Me
The Hatred

E--------------------------
B--------------------------
G--------------------------
D--------------------------
A--2--5--3-3--2--2--2--7--1
E--4--5--3-3--4--2--2--5--0

Chorus:
Can you help me?!
Will we ever be?!
Why can't you see?!
Some one help me!

E-----------
B-----------
G-----------
D--5-5-5-5-5
A--5-5-5-5-5
E--3-3-3-3-3
Tap to rate this tab
# A B C D E F G H I J K L M N O P Q R S T U V W X Y Z