Song name
# A B C D E F G H I J K L M N O P Q R S T U V W X Y Z

Falconer - Clarion Call tab

                               The Clarion Call   Falconer


Standard tuning.
Containing three guitar tracks.
Lead Guitar

     E        E  E  E  E  E  E  E     E  E  E  H         E
E||--------------------------------|-------------------------|
B||--------------------------------|-------------------------|
G||--------------------------------|-------------------------|
D||--------------------------------|-------------------------|
A||--------------1-----0--1--------|--1-----0--1~--------L~--|
E||--3--------3-----3--------3--3--|-----3-------------------|


  E  E  E  E  E  E  E  E     E  E  E  H         E      E  E  E  E  E  E  E  E
--------------------------|-------------------------|--------------------------|
--------------------------|-------------------------|--------------------------|
--------------------------|-------------------------|--------------------------|
--------------------------|-------------------------|--------------------------|
--------1-----0--1--------|--1-----0--1~--------L~--|--------5-----3--5--------|
--3--3-----3--------3--3--|-----3-------------------|--3--3-----3--------3--3--|


  E  E  E  Q     E  E  E     E  E  E  E  E  E  E  E
--------------------------|-----------------------3--|
--------------------------|--------------------------|
-----------------------3--|--------------------------|
-----------------3--5-----|--------5-----3--5--------|
--5-----3--5~-------------|--------------------------|
-----3--------------------|--3--3-----3--------3-----|


  E  E  E  E  S  S E  E  S  S    E  E  E  E  E  E  E  E
--L---------------------------|--------------------------|
-----6--3--6------------------|--------------------------|
--------------5p-3-2-----2h-3-|--------3-----2--3--------|
----------------------5-------|--------------------------|
------------------------------|--------------------------|
------------------------------|--3--3-----3--------3--3--|


  E  E  E  Q    E  S  S E     E  E  E  E  E  E  E  E
---------------------------|--------------------------|
---------------------------|-----------------------3--|
--3-----2--3----2-------2--|--------3-----2--3--------|
-------------------3h-5----|--------------------------|
---------------------------|--------------------------|
-----3---------------------|--3--3-----3--------3-----|


  E  E  E  E  E  E  S  S E     E  E    E  E  E  E  E  E
----------------------------|----------------------------|
--L-------------------------|-------------------------1--|
-----5--3--5--3--2-------2--|--------1g2-----0--2--------|
--------------------3h-5----|--3--3-------3--------3-----|
----------------------------|----------------------------|
----------------------------|----------------------------|


  E  E  E  E  E  E    E   S S    E  E  E  E  E  E  E    E
------------------------------|----------------------------|
--L--3--1---------------------|----------------------------|
-----------2--0-----0g2p--0---|--------2-----0--2-----5g7--|
-----------------3----------3-|--0--0-----0--------0-------|
------------------------------|----------------------------|
------------------------------|----------------------------|


  E  E  E  E  E  E  E  E     E  E  E  E  E  E  E  E
--------5--8--6--5--------|---------------------------|
-----7--------------8--7--|-----------7--8--6--8--L\--|
--L-----------------------|--------7------------------|
--------------------------|--5--8---------------------|
--------------------------|---------------------------|
--------------------------|---------------------------|


  E  E  E  E  E  E  E  E     E  E  E  Q    E  S  S E
--------------------------|---------------------------|
--------------------------|---------------------------|
--------3-----2--3--------|--3-----2--3----2-------2--|
--------------------------|-------------------3h-5----|
--------------------------|---------------------------|
--3--3-----3--------3--3--|-----3---------------------|


  E  E  E  E  E  E  E  E     E  E  E  E  E  E  S  S E
--------------------------|----------------------------|
-----------------------3--|--L-------------------------|
--------3-----2--3--------|-----5--3--5--3--2-------2--|
--------------------------|--------------------3h-5----|
--------------------------|----------------------------|
--3--3-----3--------3-----|----------------------------|


  E  E    E  E  E  E  E  E     E  E  E  E  E  E    E   S S
----------------------------|------------------------------|
-------------------------1--|--L--3--1---------------------|
--------1g2-----0--2--------|-----------2--0-----0g2p--0---|
--3--3-------3--------3-----|-----------------3----------3-|
----------------------------|------------------------------|
----------------------------|------------------------------|


  E  E  E  E  E  E  E    E     E  E  E  E  E  E  E  E
----------------------------|--------5--8--6--5--------|
----------------------------|-----7--------------8--7--|
--------2-----0--2-----5g7--|--L-----------------------|
--0--0-----0--------0-------|--------------------------|
----------------------------|--------------------------|
----------------------------|--------------------------|


                              PM PM PM PM PM PM PM PM
  E  E  E  E  E  E  E  E      S  S  S  S  S  S  S  S  S Q    E  S
---------------------------|--------------------------------------|
-----------7--8--6--8--L\--|--------------------------------------|
--------7------------------|--------------------------------------|
--5--8---------------------|--------------------------------------|
---------------------------|--------------------------5-----------|
---------------------------|--3--3--3--3--3--3--3--3--3-----------|


  PM PM PM PM PM PM PM PM
  S  S  S  S  S  S  S  S  S Q    E  S    W                   W
--------------------------------------|-------------------|-------------------|
--------------------------------------|-------------------|-------------------|
--------------------------------------|-------------------|-------------------|
--------------------------------------|-------------------|-------------------|
--------------------------5-----------|-------------------|-------------------|
--3--3--3--3--3--3--3--3--3-----------|-------------------|-------------------|


              |--3--|  |--3--|
    H         E  E  E  E  E  E     Q     E  Q    E  E  E
--------------------------------|-------------------------|
--------------------------------|-------------------------|
--------------------------------|-------------------------|
--5g8~-----------------------5--|--7~----8--7----5--------|
--------------------5--6--8-----|-------------------8--6--|
--------------6--8--------------|-------------------------|


            |--3--|
  H         E  E  E  Q          Q      E   Q     E  E   E
--------------------------|--------------------------------|
--------------------------|--------------------------------|
--------------------------|--------------------------------|
--------------------------|--7g10~----12--10~----7--8--10--|
--5~--------------5-------|--------------------------------|
------------6--8-----8----|--------------------------------|


  PM PM PM PM PM PM PM PM                PM PM PM PM PM PM PM PM
  S  S  S  S  S  S  S  S  S Q    E  S    S  S  S  S  S  S  S  S  S Q    E  S
--------------------------------------|--------------------------------------|
--------------------------------------|--------------------------------------|
--------------------------------------|--------------------------------------|
--------------------------------------|--------------------------------------|
--------------------------5-----------|--------------------------5-----------|
--3--3--3--3--3--3--3--3--3-----------|--3--3--3--3--3--3--3--3--3-----------|


  W                   W                   W                   W
-------------------|-------------------|-------------------|-------------------|
-------------------|-------------------|-------------------|-------------------|
-------------------|-------------------|-------------------|-------------------|
-------------------|-------------------|-------------------|-------------------|
-------------------|-------------------|-------------------|-------------------|
-------------------|-------------------|-------------------|-------------------|


  W                   W                   W                   W
-------------------|-------------------|-------------------|-------------------|
-------------------|-------------------|-------------------|-------------------|
-------------------|-------------------|-------------------|-------------------|
-------------------|-------------------|-------------------|-------------------|
-------------------|-------------------|-------------------|-------------------|
-------------------|-------------------|-------------------|-------------------|


                                         |--3--|
  W                     Q.       Q    E  S  S  S  E     Q.      Q.     Q
-------------------|---------------------------------|----------------------|
-------------------|---------------------------------|----------------------|
-------------------|---------------------------------|----------------------|
-------------------|--5g8~------------8--7h-8p-7-----|--7-------------------|
-------------------|------------10---------------10--|---------10------8----|
-------------------|---------------------------------|----------------------|


  Q.      Q.      Q        Q     Q     Q     Q
-----------------------|--------------------10----|
-----------------------|--------------10----------|
-----------------------|--------11----------------|
---------12------10----|--12----------------------|
--9--------------------|--------------------------|
-----------------------|--------------------------|


   PM PM PM PM PM PM PM PM                 PM PM PM PM PM PM PM PM
   S  S  S  S  S  S  S  S  S  Q    E  S    S  S  S  S  S  S  S  S  S Q    E  S
--15~-L--L--L--L--L--L-----L\-----------|--------------------------------------|
----------------------------------------|--------------------------------------|
----------------------------------------|--------------------------------------|
----------------------------------------|--------------------------------------|
---------------------------5------------|--------------------------5-----------|
---3--3--3--3--3--3--3--3--3------------|--3--3--3--3--3--3--3--3--3-----------|


                                                      |--3--|  |--3--|
  W                   W                     H         E  E  E  E  E  E
-------------------|-------------------|--------------------------------|
-------------------|-------------------|--------------------------------|
-------------------|-------------------|--------------------------------|
-------------------|-------------------|--5g8~-----------------------5--|
-------------------|-------------------|--------------------5--6--8-----|
-------------------|-------------------|--------------6--8--------------|


                                      |--3--|
  Q     E  Q    E  E  E     H         E  E  E  Q
-------------------------|--------------------------|
-------------------------|--------------------------|
-------------------------|--------------------------|
--7~----8--7----5--------|--------------------------|
-------------------8--6--|--5~--------------5-------|
-------------------------|------------6--8-----8----|


                                   PM PM PM PM PM PM PM PM
     Q      E   Q     E  E   E     S  S  S  S  S  S  S  S  S Q    E  S
--------------------------------|--------------------------------------|
--------------------------------|--------------------------------------|
--------------------------------|--------------------------------------|
--7g10~----12--10~----7--8--10--|--------------------------------------|
--------------------------------|--------------------------5-----------|
--------------------------------|--3--3--3--3--3--3--3--3--3-----------|


  PM PM PM PM PM PM PM PM
  S  S  S  S  S  S  S  S  S Q    E  S    W                   W
--------------------------------------|-------------------|-------------------|
--------------------------------------|-------------------|-------------------|
--------------------------------------|-------------------|-------------------|
--------------------------------------|-------------------|-------------------|
--------------------------5-----------|-------------------|-------------------|
--3--3--3--3--3--3--3--3--3-----------|-------------------|-------------------|


  W                   W                   W                   W
-------------------|-------------------|-------------------|-------------------|
-------------------|-------------------|-------------------|-------------------|
-------------------|-------------------|-------------------|-------------------|
-------------------|-------------------|-------------------|-------------------|
-------------------|-------------------|-------------------|-------------------|
-------------------|-------------------|-------------------|-------------------|


  W                   W                   W                   W
-------------------|-------------------|-------------------|-------------------|
-------------------|-------------------|-------------------|-------------------|
-------------------|-------------------|-------------------|-------------------|
-------------------|-------------------|-------------------|-------------------|
-------------------|-------------------|-------------------|-------------------|
-------------------|-------------------|-------------------|-------------------|


  W                   W                   W                   W
-------------------|-------------------|-------------------|-------------------|
-------------------|-------------------|-------------------|-------------------|
-------------------|-------------------|-------------------|-------------------|
-------------------|-------------------|-------------------|-------------------|
-------------------|-------------------|-------------------|-------------------|
-------------------|-------------------|-------------------|-------------------|


  W                   W                   W                   W
-------------------|-------------------|-------------------|-------------------|
-------------------|-------------------|-------------------|-------------------|
-------------------|-------------------|-------------------|-------------------|
-------------------|-------------------|-------------------|-------------------|
-------------------|-------------------|-------------------|-------------------|
-------------------|-------------------|-------------------|-------------------|


  W                   W                   W                   W
-------------------|-------------------|-------------------|-------------------|
-------------------|-------------------|-------------------|-------------------|
-------------------|-------------------|-------------------|-------------------|
-------------------|-------------------|-------------------|-------------------|
-------------------|-------------------|-------------------|-------------------|
-------------------|-------------------|-------------------|-------------------|


  E  E  E  E  E  E  E  E     E  E  E  Q    E  S  S E
--------------------------|---------------------------|
--------------------------|---------------------------|
--------3-----2--3--------|--3-----2--3----2-------2--|
--------------------------|-------------------3h-5----|
--------------------------|---------------------------|
--3--3-----3--------3--3--|-----3---------------------|


  E  E  E  E  E  E  E  E     E  E  E  E  E  E  S  S E
--------------------------|----------------------------|
-----------------------3--|--L-------------------------|
--------3-----2--3--------|-----5--3--5--3--2-------2--|
--------------------------|--------------------3h-5----|
--------------------------|----------------------------|
--3--3-----3--------3-----|----------------------------|


  E  E    E  E  E  E  E  E     E  E  E  E  E  E    E   S S
----------------------------|------------------------------|
-------------------------1--|--L--3--1---------------------|
--------1g2-----0--2--------|-----------2--0-----0g2p--0---|
--3--3-------3--------3-----|-----------------3----------3-|
----------------------------|------------------------------|
----------------------------|------------------------------|


  E  E  E  E  E  E  E    E     E  E  E  E  E  E  E  E
----------------------------|--------5--8--6--5--------|
----------------------------|-----7--------------8--7--|
--------2-----0--2-----5g7--|--L-----------------------|
--0--0-----0--------0-------|--------------------------|
----------------------------|--------------------------|
----------------------------|--------------------------|


  E  E  E  E  E  E  E  E      E  E  E  E  E  E  E  E
---------------------------|--------------------------|
-----------7--8--6--8--L\--|--------------------------|
--------7------------------|--------3-----2--3--------|
--5--8---------------------|--------------------------|
---------------------------|--------------------------|
---------------------------|--3--3-----3--------3--3--|


  E  E  E  Q    E  S  S E     E  E  E  E  E  E  E  E
---------------------------|--------------------------|
---------------------------|-----------------------3--|
--3-----2--3----2-------2--|--------3-----2--3--------|
-------------------3h-5----|--------------------------|
---------------------------|--------------------------|
-----3---------------------|--3--3-----3--------3-----|


  E  E  E  E  E  E  S  S E     E  E    E  E  E  E  E  E
----------------------------|----------------------------|
--L-------------------------|-------------------------1--|
-----5--3--5--3--2-------2--|--------1g2-----0--2--------|
--------------------3h-5----|--3--3-------3--------3-----|
----------------------------|----------------------------|
----------------------------|----------------------------|


  E  E  E  E  E  E    E   S S    E  E  E  E  E  E  E    E
------------------------------|----------------------------|
--L--3--1---------------------|----------------------------|
-----------2--0-----0g2p--0---|--------2-----0--2-----5g7--|
-----------------3----------3-|--0--0-----0--------0-------|
------------------------------|----------------------------|
------------------------------|----------------------------|


  E  E  E  E  E  E  E  E     E  E  E  E  E  E  E  E
--------5--8--6--5--------|---------------------------|
-----7--------------8--7--|-----------7--8--6--8--L\--|
--L-----------------------|--------7------------------|
--------------------------|--5--8---------------------|
--------------------------|---------------------------|
--------------------------|---------------------------|


  PM PM PM PM PM PM PM PM                PM PM PM PM PM PM PM PM
  S  S  S  S  S  S  S  S  S Q    E  S    S  S  S  S  S  S  S  S  S Q    E  S
--------------------------------------|--------------------------------------|
--------------------------------------|--------------------------------------|
--------------------------------------|--------------------------------------|
--------------------------------------|--------------------------------------|
--------------------------5-----------|--------------------------5-----------|
--3--3--3--3--3--3--3--3--3-----------|--3--3--3--3--3--3--3--3--3-----------|


                                                      |--3--|  |--3--|
  W                   W                     H         E  E  E  E  E  E
-------------------|-------------------|--------------------------------|
-------------------|-------------------|--------------------------------|
-------------------|-------------------|--------------------------------|
-------------------|-------------------|--5g8~-----------------------5--|
-------------------|-------------------|--------------------5--6--8-----|
-------------------|-------------------|--------------6--8--------------|


                                      |--3--|
  Q     E  Q    E  E  E     H         E  E  E  Q
-------------------------|--------------------------|
-------------------------|--------------------------|
-------------------------|--------------------------|
--7~----8--7----5--------|--------------------------|
-------------------8--6--|--5~--------------5-------|
-------------------------|------------6--8-----8----|


                                   PM PM PM PM PM PM PM PM
     Q      E   Q     E  E   E     S  S  S  S  S  S  S  S  S Q    E  S
--------------------------------|--------------------------------------|
--------------------------------|--------------------------------------|
--------------------------------|--------------------------------------|
--7g10~----12--10~----7--8--10--|--------------------------------------|
--------------------------------|--------------------------5-----------|
--------------------------------|--3--3--3--3--3--3--3--3--3-----------|


  PM PM PM PM PM PM PM PM
  S  S  S  S  S  S  S  S  S Q    E  S    W                   W
--------------------------------------|-------------------|-------------------|
--------------------------------------|-------------------|-------------------|
--------------------------------------|-------------------|-------------------|
--------------------------------------|-------------------|-------------------|
--------------------------5-----------|-------------------|-------------------|
--3--3--3--3--3--3--3--3--3-----------|-------------------|-------------------|


  W                   W                   W                   W
-------------------|-------------------|-------------------|-------------------|
-------------------|-------------------|-------------------|-------------------|
-------------------|-------------------|-------------------|-------------------|
-------------------|-------------------|-------------------|-------------------|
-------------------|-------------------|-------------------|-------------------|
-------------------|-------------------|-------------------|-------------------|


  W                   W                   W                   W
-------------------|-------------------|-------------------|-------------------|
-------------------|-------------------|-------------------|-------------------|
-------------------|-------------------|-------------------|-------------------|
-------------------|-------------------|-------------------|-------------------|
-------------------|-------------------|-------------------|-------------------|
-------------------|-------------------|-------------------|-------------------|


  W                   W                   W                   W
-------------------|-------------------|-------------------|-------------------|
-------------------|-------------------|-------------------|-------------------|
-------------------|-------------------|-------------------|-------------------|
-------------------|-------------------|-------------------|-------------------|
-------------------|-------------------|-------------------|-------------------|
-------------------|-------------------|-------------------|-------------------|


  W                   W                   W                   W
-------------------|-------------------|-------------------|-------------------|
-------------------|-------------------|-------------------|-------------------|
-------------------|-------------------|-------------------|-------------------|
-------------------|-------------------|-------------------|-------------------|
-------------------|-------------------|-------------------|-------------------|
-------------------|-------------------|-------------------|-------------------|


  W                   W                   W                   W
-------------------|-------------------|-------------------|-------------------|
-------------------|-------------------|-------------------|-------------------|
-------------------|-------------------|-------------------|-------------------|
-------------------|-------------------|-------------------|-------------------|
-------------------|-------------------|-------------------|-------------------|
-------------------|-------------------|-------------------|-------------------|


  H        Q       H        Q       H        Q       H        Q
----------------|----------------|----------------|----------------|
----------------|----------------|----------------|----------------|
----------------|----------------|----------------|----------------|
----------------|----------------|----------------|----------------|
----------------|----------------|----------------|----------------|
----------------|----------------|----------------|----------------|


  H        Q       H        Q       H        Q       H        Q
----------------|----------------|----------------|----------------|
----------------|----------------|----------------|----------------|
----------------|----------------|----------------|----------------|
----------------|----------------|----------------|----------------|
----------------|----------------|----------------|----------------|
----------------|----------------|----------------|----------------|


  H        Q       H        Q       H        Q       H        Q
----------------|----------------|----------------|----------------|
----------------|----------------|----------------|----------------|
----------------|----------------|----------------|----------------|
----------------|----------------|----------------|----------------|
----------------|----------------|----------------|----------------|
----------------|----------------|----------------|----------------|


  H        Q       H        Q       H        Q       H        Q
----------------|----------------|----------------|----------------|
----------------|----------------|----------------|----------------|
----------------|----------------|----------------|----------------|
----------------|----------------|----------------|----------------|
----------------|----------------|----------------|----------------|
----------------|----------------|----------------|----------------|


  H        Q       H        Q       H        Q       H        Q
----------------|----------------|----------------|----------------|
----------------|----------------|----------------|----------------|
----------------|----------------|----------------|----------------|
----------------|----------------|----------------|----------------|
----------------|----------------|----------------|----------------|
----------------|----------------|----------------|----------------|


  H        Q       H        Q       H        Q       H        Q
----------------|----------------|----------------|----------------|
----------------|----------------|----------------|----------------|
----------------|----------------|----------------|----------------|
----------------|----------------|----------------|----------------|
----------------|----------------|----------------|----------------|
----------------|----------------|----------------|----------------|


  H        Q       H        Q       H        Q       H        Q
----------------|----------------|----------------|----------------|
----------------|----------------|----------------|----------------|
----------------|----------------|----------------|----------------|
----------------|----------------|----------------|----------------|
----------------|----------------|----------------|----------------|
----------------|----------------|----------------|----------------|


  H        Q       H        Q       H        Q       H        Q
----------------|----------------|----------------|----------------|
----------------|----------------|----------------|----------------|
----------------|----------------|----------------|----------------|
----------------|----------------|----------------|----------------|
----------------|----------------|----------------|----------------|
----------------|----------------|----------------|----------------|


  H        Q       H        Q       H        Q       H        Q
----------------|----------------|----------------|----------------|
----------------|----------------|----------------|----------------|
----------------|----------------|----------------|----------------|
----------------|----------------|----------------|----------------|
----------------|----------------|----------------|----------------|
----------------|----------------|----------------|----------------|


    H.               Q    E   E   E    E         H.
------------------|-----------------------|--------------------|
------------------|-----------------------|--------------------|
--3g7~------------|--7----7S--5S--7S--10--|--10g12~------------|
------------------|-----------------------|--------------------|
------------------|-----------------------|--------------------|
------------------|-----------------------|--------------------|


   Q     E   E   Q          H.                Q     E   E   Q
----------------------|-------------------|----------------------|
----------------------|-------------------|----------------------|
--12----12--10p--8----|--8g10~------------|--10----10--12--10----|
----------------------|-------------------|----------------------|
----------------------|-------------------|----------------------|
----------------------|-------------------|----------------------|


     Q     E  Q.           Q     E  Q    E     H.
---------------------|----------------------|----------------|
---------------------|----------------------|----------------|
---------------------|-------------------8--|--7~------------|
--8g10~----8--7------|--7g10~----8--7-------|----------------|
---------------------|----------------------|----------------|
---------------------|----------------------|----------------|


  Q    E   E   E    E         H.                Q     Q.      E
-----------------------|--------------------|--------------------|
-----------------------|--------------------|--------------------|
--7----7S--5S--7S--10--|--10g12~------------|--12----14------15--|
-----------------------|--------------------|--------------------|
-----------------------|--------------------|--------------------|
-----------------------|--------------------|--------------------|


   H.                Q     Q.      E      H.               H        Q
-----------------|--------------------|-----------------|-----------------|
-----------------|--------------------|-----------------|-----------------|
--15~------------|--15----14------15--|--17~------------|--L--------L\----|
-----------------|--------------------|-----------------|-----------------|
-----------------|--------------------|-----------------|-----------------|
-----------------|--------------------|-----------------|-----------------|


        |---3---|  |---3---|
   Q    E   E   E  E   E   E      H         Q
------------------------------|-------------------|
--12--------------------------|--12~--------L\----|
-------------------9--11--12--|-------------------|
--------9--10--12-------------|-------------------|
------------------------------|-------------------|
------------------------------|-------------------|


         |---3---|   |---3---|
   Q     E   E   E   E   E   E      H         Q
--12----------------------------|--12~--------L\----|
--------------------12--13--15--|-------------------|
--------11--12--14--------------|-------------------|
--------------------------------|-------------------|
--------------------------------|-------------------|
--------------------------------|-------------------|


         |---3---|   |---3---|
   Q     E   E   E   E   E   E      H         Q
--------------------------------|-------------------|
--15------------------------12--|--15~--------L\----|
----------------11--12--14------|-------------------|
--------12--14------------------|-------------------|
--------------------------------|-------------------|
--------------------------------|-------------------|


         |---3---|   |---3---|
   Q     E   E   E   E   E   E      H         Q
--------------------------------|-------------------|
--15------------------------12--|--15~--------L\----|
----------------11--12--14------|-------------------|
--------12--14------------------|-------------------|
--------------------------------|-------------------|
--------------------------------|-------------------|


        |---3---|  |---3---|
   Q    E   E   E  E   E   E      H         Q
------------------------------|-------------------|
--12--------------------------|--12~--------L\----|
-------------------9--11--12--|-------------------|
--------9--10--12-------------|-------------------|
------------------------------|-------------------|
------------------------------|-------------------|


         |---3---|   |---3---|
   Q     E   E   E   E   E   E      H         Q
--12----------------------------|--12~--------L\----|
--------------------12--13--15--|-------------------|
--------11--12--14--------------|-------------------|
--------------------------------|-------------------|
--------------------------------|-------------------|
--------------------------------|-------------------|


         |---3--|   |---3--|
   Q     E  E   E   E  E   E      H         Q
------------------------------|-------------------|
------------------------------|-------------------|
--12-------------------9--11--|--12~--------L\----|
------------9--10--12---------|-------------------|
--------12--------------------|-------------------|
------------------------------|-------------------|


         |---3---|   |---3---|
   Q     E   E   E   E   E   E      H         Q           W
--------------------------------|-------------------|-----------------------|
--------------------------------|-------------------|-----------------------|
--14--------------------11--12--|--14~--------L\----|--8g12~----------------|
----------------12--14----------|-------------------|-----------------------|
--------14--15------------------|-------------------|-----------------------|
--------------------------------|-------------------|-----------------------|


   Q.      Q.      Q        W                    W
------------------------|---------------------|-------------------|
------------------------|---------------------|-------------------|
--14------12------14----|--16~----------------|--L----------------|
------------------------|---------------------|-------------------|
------------------------|---------------------|-------------------|
------------------------|---------------------|-------------------|


   H.             E    E       Q.      Q.      Q        W
---------------------------|------------------------|---------------------|
---------------------------|------------------------|---------------------|
--15~------------17S--19S--|--17------15------17----|--19~----------------|
---------------------------|------------------------|---------------------|
---------------------------|------------------------|---------------------|
---------------------------|------------------------|---------------------|


  W                   W                   W                   W
-------------------|-------------------|-------------------|-------------------|
-------------------|-------------------|-------------------|-------------------|
--L----------------|--L----------------|-------------------|-------------------|
-------------------|-------------------|-------------------|-------------------|
-------------------|-------------------|-------------------|-------------------|
-------------------|-------------------|-------------------|-------------------|


                                         |--3--|
  W                     Q.       Q    E  S  S  S  E     Q.      Q.     Q
-------------------|---------------------------------|----------------------|
-------------------|---------------------------------|----------------------|
-------------------|---------------------------------|----------------------|
-------------------|--5g8~------------8--7h-8p-7-----|--7-------------------|
-------------------|------------10---------------10--|---------10------8----|
-------------------|---------------------------------|----------------------|


  Q.      Q.      Q        Q     E   E   E   E  Q       W
-----------------------|-----------------------------|-------------------|
-----------------------|-----------------------------|-------------------|
-----------------------|-----------------------------|-------------------|
---------12------10----|--12----10-------------------|-------------------|
--9--------------------|------------13--12--10--8----|-------------------|
-----------------------|-----------------------------|-------------------|


  W                   W                   W                   W
-------------------|-------------------|-------------------|-------------------|
-------------------|-------------------|-------------------|-------------------|
-------------------|-------------------|-------------------|-------------------|
-------------------|-------------------|-------------------|-------------------|
-------------------|-------------------|-------------------|-------------------|
-------------------|-------------------|-------------------|-------------------|


  W                   W                   W                   W
-------------------|-------------------|-------------------|-------------------|
-------------------|-------------------|-------------------|-------------------|
-------------------|-------------------|-------------------|-------------------|
-------------------|-------------------|-------------------|-------------------|
-------------------|-------------------|-------------------|-------------------|
-------------------|-------------------|-------------------|-------------------|


  W                   W                   W                   W
-------------------|-------------------|-------------------|-------------------|
-------------------|-------------------|-------------------|-------------------|
-------------------|-------------------|-------------------|-------------------|
-------------------|-------------------|-------------------|-------------------|
-------------------|-------------------|-------------------|-------------------|
-------------------|-------------------|-------------------|-------------------|


  W                   W                   W                   W
-------------------|-------------------|-------------------|-------------------|
-------------------|-------------------|-------------------|-------------------|
-------------------|-------------------|-------------------|-------------------|
-------------------|-------------------|-------------------|-------------------|
-------------------|-------------------|-------------------|-------------------|
-------------------|-------------------|-------------------|-------------------|


  W                   W                   W                   W
-------------------|-------------------|-------------------|-------------------|
-------------------|-------------------|-------------------|-------------------|
-------------------|-------------------|-------------------|-------------------|
-------------------|-------------------|-------------------|-------------------|
-------------------|-------------------|-------------------|-------------------|
-------------------|-------------------|-------------------|-------------------|


  W                   W                   W                   W
-------------------|-------------------|-------------------|-------------------|
-------------------|-------------------|-------------------|-------------------|
-------------------|-------------------|-------------------|-------------------|
-------------------|-------------------|-------------------|-------------------|
-------------------|-------------------|-------------------|-------------------|
-------------------|-------------------|-------------------|-------------------|


  W                   W                   W                   W
-------------------|-------------------|-------------------|-------------------|
-------------------|-------------------|-------------------|-------------------|
-------------------|-------------------|-------------------|-------------------|
-------------------|-------------------|-------------------|-------------------|
-------------------|-------------------|-------------------|-------------------|
-------------------|-------------------|-------------------|-------------------|


  W                   W                   W                   W
-------------------|-------------------|-------------------|-------------------|
-------------------|-------------------|-------------------|-------------------|
-------------------|-------------------|-------------------|-------------------|
-------------------|-------------------|-------------------|-------------------|
-------------------|-------------------|-------------------|-------------------|
-------------------|-------------------|-------------------|-------------------|


  W                   W                   W                   W
-------------------|-------------------|-------------------|-------------------|
-------------------|-------------------|-------------------|-------------------|
-------------------|-------------------|-------------------|-------------------|
-------------------|-------------------|-------------------|-------------------|
-------------------|-------------------|-------------------|-------------------|
-------------------|-------------------|-------------------|-------------------|


  W                   W                   W                   W
-------------------|-------------------|-------------------|-------------------|
-------------------|-------------------|-------------------|-------------------|
-------------------|-------------------|-------------------|-------------------|
-------------------|-------------------|-------------------|-------------------|
-------------------|-------------------|-------------------|-------------------|
-------------------|-------------------|-------------------|-------------------|


  W                   W                   W                   W
-------------------|-------------------|-------------------|-------------------|
-------------------|-------------------|-------------------|-------------------|
-------------------|-------------------|-------------------|-------------------|
-------------------|-------------------|-------------------|-------------------|
-------------------|-------------------|-------------------|-------------------|
-------------------|-------------------|-------------------|-------------------|


  W                   W                   W                   W
-------------------|-------------------|-------------------|-------------------|
-------------------|-------------------|-------------------|-------------------|
-------------------|-------------------|-------------------|-------------------|
-------------------|-------------------|-------------------|-------------------|
-------------------|-------------------|-------------------|-------------------|
-------------------|-------------------|-------------------|-------------------|


  E  E  E  E  E  Q    E     E  E  E  E  H
-------------------------|-----------------------||
-------------------------|--8--8--8--8-----------||
-----7--7--7--7----------|--7--7--7--7-----------||
-----5--5--5--5----------|--5--5--5--5-----------||
-----5--5--5--5----------|-----------------------||
-------------------------|-----------------------||


******************************************************************************
##############################################################################
******************************************************************************


Rhythm guitar 1


     PM                                           PM    PM
     E        H        Q    E     H.           E  E     E  H        Q    E
E||----------------------------|---------------------|----------------------|
B||----------------------------|---------------------|----------------------|
G||----------------------------|---------------------|----------------------|
D||----------------------------|---------------------|----------------------|
A||--5-------------------------|---------------------|--5-------------------|
E||--3-------------------------|------------------3--|--3-------------------|


                  PM PM    PM
  H.           E  S  S     E  H        Q    E     W
------------------------|----------------------|-------------------|
------------------------|----------------------|-------------------|
------------------------|----------------------|-------------------|
------------------------|----------------------|-------------------|
------------------------|--5-------------------|-------------------|
------------------3--3--|--3-------------------|-------------------|


  PM PM PM PM PM PM PM PM    PM PM PM PM
  E  E  E  E  E  E  E  E     E  E  E  E  E  E  E  E
--------------------------|--------------------------|
--------------------------|--------------------------|
--------------------------|--------------------------|
--------------------------|--------------------------|
--5--5--5--5--5--5--5--5--|--5--5--5--5--5--5--5--5--|
--3--3--3--3--3--3--3--3--|--3--3--3--3--3--3--3--3--|


  E  E  E  E  E  E  E  E     E  E  E  Q    E  S  S E
--------------------------|---------------------------|
--------------------------|---------------------------|
--------3-----2--3--------|--3-----2--3----2-------2--|
--------------------------|-------------------3h-5----|
--------------------------|---------------------------|
--3--3-----3--------3--3--|-----3---------------------|


  E  E  E  E  E  E  E  E     E  E  E  E  E  E  S  S E
--------------------------|----------------------------|
-----------------------3--|--L-------------------------|
--------3-----2--3--------|-----5--3--5--3--2-------2--|
--------------------------|--------------------3h-5----|
--------------------------|----------------------------|
--3--3-----3--------3-----|----------------------------|


  E  E    E  E  E  E  E  E     E  E  E  E  E  E    E   S S
----------------------------|------------------------------|
-------------------------1--|--L--3--1---------------------|
--------1g2-----0--2--------|-----------2--0-----0g2p--0---|
--3--3-------3--------3-----|-----------------3----------3-|
----------------------------|------------------------------|
----------------------------|------------------------------|


  E  E  E  E  E  E  E    E     E  E  E  E  E  E  E  E
----------------------------|--------5--8--6--5--------|
----------------------------|-----7--------------8--7--|
--------2-----0--2-----5g7--|--L-----------------------|
--0--0-----0--------0-------|--------------------------|
----------------------------|--------------------------|
----------------------------|--------------------------|


  E  E  E  E  E  E  E  E      E  E  E  E  E  E  E  E
---------------------------|--------------------------|
-----------7--8--6--8--L\--|--------3-----1--3--------|
--------7------------------|--------------------------|
--5--8---------------------|--------------------------|
---------------------------|--------------------------|
---------------------------|--3--3-----3--------3--3--|


  E  E  E  Q    E  S  S E     E  E  E  E  E  E  E  E
---------------------------|-----------------------1--|
--3-----1--3----1-------1--|--------3-----1--3--------|
-------------------2h-3----|--------------------------|
---------------------------|--------------------------|
---------------------------|--------------------------|
-----3---------------------|--3--3-----3--------3-----|


  E  E  E  E  E  E  S S E     H.           E  E     H        H
--L--3--1--3--1--3----1-3--|---------------------|--------------------|
--------------------3------|---------------------|--------------------|
---------------------------|---------------------|--------------------|
---------------------------|------------------5--|--L--------7--------|
---------------------------|--3------------L--3--|--L--------5--------|
---------------------------|--1------------L-----|--------------------|


  H.           E    E     E  E  E  E  E  E  E  E
-----------------------|--------------------------|
-----------------------|--------------------------|
-----------------------|--------2--5--3--2--------|
-----------------------|-----4--------------5--4--|
--5------------L--3g5--|--L-----------------------|
--3------------L-------|--------------------------|


                                    PM PM PM PM PM PM PM PM
  E   E   E   E   E   E   E  E      S  S  S  S  S  S  S  S  S Q    E  S
---------10--14--15--13--15--L\--|--------------------------------------|
--8--11--------------------------|--------------------------------------|
---------------------------------|--------------------------------------|
---------------------------------|--------------------------------------|
---------------------------------|--------------------------5-----------|
---------------------------------|--3--3--3--3--3--3--3--3--3-----------|


  PM PM PM PM PM PM PM PM                     PM PM      PM PM
  S  S  S  S  S  S  S  S  S Q    E  S    Q    E  E  Q    E  E
--------------------------------------|------------------------|
--------------------------------------|------------------------|
--------------------------------------|--3---------------------|
--------------------------------------|--3----3--3--3----------|
--------------------------5-----------|--1----1--1--3----3--3--|
--3--3--3--3--3--3--3--3--3-----------|-------------1----1--1--|


       PM
                                     |--3--|  |--3--|
  Q    E  H        E       H         E  E  E  E  E  E
----------------------|--------------------------------|
----------------------|--------------------------------|
----------7--------L--|--------------------------------|
--5-------7--------L--|--5g8~-----------------------5--|
--5----5--5--------L--|--------------------5--6--8-----|
--3----3--------------|--------------6--8--------------|


                                      |--3--|
  Q     E  Q    E  E  E     H         E  E  E  Q
-------------------------|--------------------------|
-------------------------|--------------------------|
-------------------------|--------------------------|
--7~----8--7----5--------|--------------------------|
-------------------8--6--|--5~--------------5-------|
-------------------------|------------6--8-----8----|


                                    PM PM PM PM PM PM PM PM
     Q      E   Q     E   E   E     S  S  S  S  S  S  S  S  S Q    E  S
---------------------------------|--------------------------------------|
---------------------------------|--------------------------------------|
---------------------------------|--------------------------------------|
---------------------------------|--------------------------------------|
--9g12~----13--12~----8--10--12--|--------------------------5-----------|
---------------------------------|--3--3--3--3--3--3--3--3--3-----------|


  PM PM PM PM PM PM PM PM                     PM PM      PM PM
  S  S  S  S  S  S  S  S  S Q    E  S    Q    E  E  Q    E  E
--------------------------------------|------------------------|
--------------------------------------|------------------------|
--------------------------------------|--8---------------------|
--------------------------------------|--8----8--8--3----------|
--------------------------5-----------|--6----6--6--3----3--3--|
--3--3--3--3--3--3--3--3--3-----------|-------------1----1--1--|


       PM      PM PM
  Q    E  Q    E  E  E     E  E  E  E  E  E  E  E     E  E  E  E  E  E  E  E
------------------------|--------------------------|--------------------------|
------------------------|--------------------------|--------------------------|
--3-------5-------------|--------------------------|--------------------------|
--3----3--5----5--5--5--|--7--7--7--7--7--7--7--7--|--7--7--7--7--7--7--7--7--|
--1----1--3----3--3--3--|--5--5--5--5--5--5--5--5--|--5--5--5--5--5--5--5--5--|
------------------------|--------------------------|--------------------------|


                                PM PM          PM       PM PM        PM PM
  E  E  E  E  E  E  E  E     E  E  E  H        E     E  E  E  Q.     E  E
--------------------------|-----------------------|------------------------|
--------------------------|-----------------------|------------------------|
--------------------------|--5--------5-----------|--5--------5------------|
--8--8--8--8--------------|--5--5--5--5--------5--|--5--5--5--5------3--2--|
--6--6--6--6--3--3--3--3--|--3--3--3--3--------3--|--3--3--3--3------1--0--|
--------------1--1--1--1--|-----------------------|------------------------|


                  PM PM                    PM PM
  E  E  E  Q.     E  E     E  E  E  Q.     E  E
------------------------|------------------------|
------------------------|------------------------|
------------------------|------------------------|
--3--2-----5------------|--3--2-----5------------|
--1--0--x--5------5--5--|--1--0--x--5------5--5--|
-----------3------3--3--|-----------3------3--3--|


                     |--3--|
    Q.       Q    E  S  S  S  E     Q.      Q.     Q
---------------------------------|----------------------|
---------------------------------|----------------------|
---------------------------------|----------------------|
--5g8~------------8--7h-8p-7-----|--7-------------------|
------------10---------------10--|---------10------8----|
---------------------------------|----------------------|


  Q.      Q.      Q        Q     Q     Q     Q
-----------------------|--------------------10----|
-----------------------|--------------10----------|
-----------------------|--------11----------------|
---------12------10----|--12----------------------|
--9--------------------|--------------------------|
-----------------------|--------------------------|


  PM PM PM PM PM PM PM PM                PM PM PM PM PM PM PM PM
  S  S  S  S  S  S  S  S  S Q    E  S    S  S  S  S  S  S  S  S  S Q    E  S
--------------------------------------|--------------------------------------|
--------------------------------------|--------------------------------------|
--------------------------------------|--------------------------------------|
--------------------------------------|--------------------------------------|
--------------------------5-----------|--------------------------5-----------|
--3--3--3--3--3--3--3--3--3-----------|--3--3--3--3--3--3--3--3--3-----------|


       PM PM      PM PM         PM
  Q    E  E  Q    E  E     Q    E  H        E
------------------------|----------------------|
------------------------|----------------------|
--3---------------------|----------7--------L--|
--3----3--3--3----------|--5-------7--------L--|
--1----1--1--3----3--3--|--5----5--5--------L--|
-------------1----1--1--|--3----3--------------|


              |--3--|  |--3--|
    H         E  E  E  E  E  E     Q     E  Q    E  E  E
--------------------------------|-------------------------|
--------------------------------|-------------------------|
--------------------------------|-------------------------|
--5g8~-----------------------5--|--7~----8--7----5--------|
--------------------5--6--8-----|-------------------8--6--|
--------------6--8--------------|-------------------------|


            |--3--|
  H         E  E  E  Q          Q      E   Q     E   E   E
--------------------------|---------------------------------|
--------------------------|---------------------------------|
--------------------------|---------------------------------|
--------------------------|---------------------------------|
--5~--------------5-------|--9g12~----13--12~----8--10--12--|
------------6--8-----8----|---------------------------------|


  PM PM PM PM PM PM PM PM                PM PM PM PM PM PM PM PM
  S  S  S  S  S  S  S  S  S Q    E  S    S  S  S  S  S  S  S  S  S Q    E  S
--------------------------------------|--------------------------------------|
--------------------------------------|--------------------------------------|
--------------------------------------|--------------------------------------|
--------------------------------------|--------------------------------------|
--------------------------5-----------|--------------------------5-----------|
--3--3--3--3--3--3--3--3--3-----------|--3--3--3--3--3--3--3--3--3-----------|


       PM PM      PM PM         PM      PM PM
  Q    E  E  Q    E  E     Q    E  Q    E  E  E     E  E  E  E  E  E  E  E
------------------------|------------------------|--------------------------|
------------------------|------------------------|--------------------------|
--8---------------------|--3-------5-------------|--------------------------|
--8----8--8--3----------|--3----3--5----5--5--5--|--7--7--7--7--7--7--7--7--|
--6----6--6--3----3--3--|--1----1--3----3--3--3--|--5--5--5--5--5--5--5--5--|
-------------1----1--1--|------------------------|--------------------------|


  E  E  E  E  E  E  E  E     E  E  E  E  E  E  E  E     E  E  H        Q
--------------------------|--------------------------|----------------------|
--------------------------|--------------------------|----------------------|
--------------------------|--------------------------|----------------------|
--7--7--7--7--7--7--7--7--|--8--8--8--8--------------|----------------------|
--5--5--5--5--5--5--5--5--|--6--6--6--6--3--3--3--3--|--5--5----------------|
--------------------------|--------------1--1--1--1--|--3--3----------------|


  PM   PM PM             PM   PM PM               PM   PM PM
  Q    E  E  H           Q    E  E  Q     Q       Q    E  E  H
----------------------|------------------------|----------------------|
----------------------|------------------------|----------------------|
----------------------|------------------------|----------------------|
-------------8--------|-------------8S----7----|-------------3--------|
--8----8--8--8--------|--8----8--8--8S----7----|--3----3--3--3--------|
--6----6--6--6--------|--6----6--6--6S----5----|--1----1--1--1--------|


  PM   PM PM               PM   PM PM             PM   PM PM
  Q    E  E  Q     Q       Q    E  E  H           Q    E  E  Q     Q
------------------------|----------------------|------------------------|
------------------------|----------------------|------------------------|
------------------------|----------------------|------------------------|
-------------3S----4----|-------------5--------|-------------5S----7----|
--3----3--3--3S----4----|--5----5--5--5--------|--5----5--5--5S----7----|
--1----1--1--1S----2----|--3----3--3--3--------|--3----3--3--3S----5----|


  PM   PM PM                  PM PM                  PM   PM PM
  Q    E  E  H           Q    E  E  E  E   E   E     Q    E  E  H
----------------------|---------------------------|----------------------|
----------------------|---------------------------|----------------------|
-------------7--------|--8------------------------|----------------------|
--7----7--7--7--------|--8----8--8--7-------------|-------------8--------|
--5----5--5--5--------|--6----6--6--7-------------|--8----8--8--8--------|
----------------------|-------------5--1h--5h--6--|--6----6--6--6--------|


  PM   PM PM               PM   PM PM             PM   PM PM
  Q    E  E  Q     Q       Q    E  E  H           Q    E  E  Q     Q
------------------------|----------------------|------------------------|
------------------------|----------------------|------------------------|
------------------------|----------------------|------------------------|
-------------8S----7----|-------------3--------|-------------3S----4----|
--8----8--8--8S----7----|--3----3--3--3--------|--3----3--3--3S----4----|
--6----6--6--6S----5----|--1----1--1--1--------|--1----1--1--1S----2----|


  PM   PM PM             PM   PM PM               PM   PM PM
  Q    E  E  H           Q    E  E  Q     Q       Q    E  E  H
----------------------|------------------------|----------------------|
----------------------|------------------------|----------------------|
----------------------|------------------------|-------------7--------|
-------------5--------|-------------5S----7----|--7----7--7--7--------|
--5----5--5--5--------|--5----5--5--5S----7----|--5----5--5--5--------|
--3----3--3--3--------|--3----3--3--3S----5----|----------------------|


       PM PM
  Q    E  E  Q    E  E     E  E  E  E  E  E  E  E     E  E  E  Q    E  S  S E
------------------------|--------------------------|---------------------------|
------------------------|--------------------------|---------------------------|
--8---------------------|--------3-----2--3--------|--3-----2--3----2-------2--|
--8----8--8-------3--3--|--------------------------|-------------------3h-5----|
--6----6--6--3----3--3--|--------------------------|---------------------------|
-------------1----1--1--|--3--3-----3--------3--3--|-----3---------------------|


  E  E  E  E  E  E  E  E     E  E  E  E  E  E  S  S E
--------------------------|----------------------------|
-----------------------3--|--L-------------------------|
--------3-----2--3--------|-----5--3--5--3--2-------2--|
--------------------------|--------------------3h-5----|
--------------------------|----------------------------|
--3--3-----3--------3-----|----------------------------|


  E  E    E  E  E  E  E  E     E  E  E  E  E  E    E   S S
----------------------------|------------------------------|
-------------------------1--|--L--3--1---------------------|
--------1g2-----0--2--------|-----------2--0-----0g2p--0---|
--3--3-------3--------3-----|-----------------3----------3-|
----------------------------|------------------------------|
----------------------------|------------------------------|


  E  E  E  E  E  E  E    E     E  E  E  E  E  E  E  E
----------------------------|--------5--8--6--5--------|
----------------------------|-----7--------------8--7--|
--------2-----0--2-----5g7--|--L-----------------------|
--0--0-----0--------0-------|--------------------------|
----------------------------|--------------------------|
----------------------------|--------------------------|


  E  E  E  E  E  E  E  E      E  E  E  E  E  E  E  E
---------------------------|--------------------------|
-----------7--8--6--8--L\--|--------3-----1--3--------|
--------7------------------|--------------------------|
--5--8---------------------|--------------------------|
---------------------------|--------------------------|
---------------------------|--3--3-----3--------3--3--|


  E  E  E  Q    E  S  S E     E  E  E  E  E  E  E  E
---------------------------|-----------------------1--|
--3-----1--3----1-------1--|--------3-----1--3--------|
-------------------2h-3----|--------------------------|
---------------------------|--------------------------|
---------------------------|--------------------------|
-----3---------------------|--3--3-----3--------3-----|


  E  E  E  E  E  E  S S E     H.           E  E     H        H
--L--3--1--3--1--3----1-3--|---------------------|--------------------|
--------------------3------|---------------------|--------------------|
---------------------------|---------------------|--------------------|
---------------------------|------------------5--|--L--------7--------|
---------------------------|--3------------L--3--|--L--------5--------|
---------------------------|--1------------L-----|--------------------|


  H.           E    E     E  E  E  E  E  E  E  E
-----------------------|--------------------------|
-----------------------|--------------------------|
-----------------------|--------2--5--3--2--------|
-----------------------|-----4--------------5--4--|
--5------------L--3g5--|--L-----------------------|
--3------------L-------|--------------------------|


                                    PM PM PM PM PM PM PM PM
  E   E   E   E   E   E   E  E      S  S  S  S  S  S  S  S  S Q    E  S
---------10--14--15--13--15--L\--|--------------------------------------|
--8--11--------------------------|--------------------------------------|
---------------------------------|--------------------------------------|
---------------------------------|--------------------------------------|
---------------------------------|--------------------------5-----------|
---------------------------------|--3--3--3--3--3--3--3--3--3-----------|


  PM PM PM PM PM PM PM PM                     PM PM      PM PM
  S  S  S  S  S  S  S  S  S Q    E  S    Q    E  E  Q    E  E
--------------------------------------|------------------------|
--------------------------------------|------------------------|
--------------------------------------|--3---------------------|
--------------------------------------|--3----3--3--3----------|
--------------------------5-----------|--1----1--1--3----3--3--|
--3--3--3--3--3--3--3--3--3-----------|-------------1----1--1--|


       PM
                                     |--3--|  |--3--|
  Q    E  H        E       H         E  E  E  E  E  E
----------------------|--------------------------------|
----------------------|--------------------------------|
----------7--------L--|--------------------------------|
--5-------7--------L--|--5g8~-----------------------5--|
--5----5--5--------L--|--------------------5--6--8-----|
--3----3--------------|--------------6--8--------------|


                                      |--3--|
  Q     E  Q    E  E  E     H         E  E  E  Q
-------------------------|--------------------------|
-------------------------|--------------------------|
-------------------------|--------------------------|
--7~----8--7----5--------|--------------------------|
-------------------8--6--|--5~--------------5-------|
-------------------------|------------6--8-----8----|


                                    PM PM PM PM PM PM PM PM
     Q      E   Q     E   E   E     S  S  S  S  S  S  S  S  S Q    E  S
---------------------------------|--------------------------------------|
---------------------------------|--------------------------------------|
---------------------------------|--------------------------------------|
---------------------------------|--------------------------------------|
--9g12~----13--12~----8--10--12--|--------------------------5-----------|
---------------------------------|--3--3--3--3--3--3--3--3--3-----------|


  PM PM PM PM PM PM PM PM                     PM PM      PM PM
  S  S  S  S  S  S  S  S  S Q    E  S    Q    E  E  Q    E  E
--------------------------------------|------------------------|
--------------------------------------|------------------------|
--------------------------------------|--8---------------------|
--------------------------------------|--8----8--8--3----------|
--------------------------5-----------|--6----6--6--3----3--3--|
--3--3--3--3--3--3--3--3--3-----------|-------------1----1--1--|


       PM      PM PM
  Q    E  Q    E  E  E     E  E  E  E  E  E  E  E     E  E  E  E  E  E  E  E
------------------------|--------------------------|--------------------------|
------------------------|--------------------------|--------------------------|
--3-------5-------------|--------------------------|--------------------------|
--3----3--5----5--5--5--|--7--7--7--7--7--7--7--7--|--7--7--7--7--7--7--7--7--|
--1----1--3----3--3--3--|--5--5--5--5--5--5--5--5--|--5--5--5--5--5--5--5--5--|
------------------------|--------------------------|--------------------------|


                                                    PM   PM PM
  E  E  E  E  E  E  E  E     E  E  H        Q       Q    E  E  H
--------------------------|----------------------|----------------------|
--------------------------|----------------------|----------------------|
--------------------------|----------------------|----------------------|
--8--8--8--8--------------|----------------------|-------------8--------|
--6--6--6--6--3--3--3--3--|--5--5----------------|--8----8--8--8--------|
--------------1--1--1--1--|--3--3----------------|--6----6--6--6--------|


  PM   PM PM               PM   PM PM             PM   PM PM
  Q    E  E  Q     Q       Q    E  E  H           Q    E  E  Q     Q
------------------------|----------------------|------------------------|
------------------------|----------------------|------------------------|
------------------------|----------------------|------------------------|
-------------8S----7----|-------------3--------|-------------3S----4----|
--8----8--8--8S----7----|--3----3--3--3--------|--3----3--3--3S----4----|
--6----6--6--6S----5----|--1----1--1--1--------|--1----1--1--1S----2----|


  PM   PM PM             PM   PM PM               PM   PM PM
  Q    E  E  H           Q    E  E  Q     Q       Q    E  E  H
----------------------|------------------------|----------------------|
----------------------|------------------------|----------------------|
----------------------|------------------------|-------------7--------|
-------------5--------|-------------5S----7----|--7----7--7--7--------|
--5----5--5--5--------|--5----5--5--5S----7----|--5----5--5--5--------|
--3----3--3--3--------|--3----3--3--3S----5----|----------------------|


       PM PM                  PM   PM PM             PM   PM PM
  Q    E  E  E  E   E   E     Q    E  E  H           Q    E  E  Q     Q
---------------------------|----------------------|------------------------|
---------------------------|----------------------|------------------------|
--8------------------------|----------------------|------------------------|
--8----8--8--7-------------|-------------8--------|-------------8S----7----|
--6----6--6--7-------------|--8----8--8--8--------|--8----8--8--8S----7----|
-------------5--1h--5h--6--|--6----6--6--6--------|--6----6--6--6S----5----|


  PM   PM PM             PM   PM PM               PM   PM PM
  Q    E  E  H           Q    E  E  Q     Q       Q    E  E  H
----------------------|------------------------|----------------------|
----------------------|------------------------|----------------------|
----------------------|------------------------|----------------------|
-------------3--------|-------------3S----4----|-------------5--------|
--3----3--3--3--------|--3----3--3--3S----4----|--5----5--5--5--------|
--1----1--1--1--------|--1----1--1--1S----2----|--3----3--3--3--------|


  PM   PM PM               PM   PM PM                  PM PM
  Q    E  E  Q     Q       Q    E  E  H           Q    E  E  Q    E  E
------------------------|----------------------|------------------------|
------------------------|----------------------|------------------------|
------------------------|-------------7--------|--8---------------------|
-------------5S----7----|--7----7--7--7--------|--8----8--8-------3--3--|
--5----5--5--5S----7----|--5----5--5--5--------|--6----6--6--3----3--3--|
--3----3--3--3S----5----|----------------------|-------------1----1--1--|


  H.              H.              H.              H.              H.
---------------|---------------|---------------|---------------|---------------|
---------------|---------------|---------------|---------------|---------------|
--3------------|--3------------|--7------------|--7------------|--8------------|
--3------------|--3------------|--7------------|--7------------|--8------------|
--1------------|--1------------|--5------------|--5------------|--6------------|
---------------|---------------|---------------|---------------|---------------|


  H.              H.              H.              H.
---------------|---------------|---------------|---------------|
---------------|---------------|---------------|---------------|
---------------|---------------|--8------------|--8------------|
--3------------|--5------------|--8------------|--8------------|
--3------------|--5------------|--6------------|--6------------|
--1------------|--3------------|---------------|---------------|


   H.              H.              H.              H.
----------------|---------------|---------------|---------------|
----------------|---------------|---------------|---------------|
--10------------|--3------------|---------------|--8------------|
--10------------|--3------------|--3------------|--8------------|
---8------------|--1------------|--3------------|--6------------|
----------------|---------------|--1------------|---------------|


                                                  PM PM PM PM PM PM
  H.              H.              H.              E  E  E  E  E  E
---------------|---------------|---------------|--------------------|
---------------|---------------|---------------|--------------------|
---------------|---------------|--3------------|--------------------|
--3------------|--5------------|--3------------|--5--5--5--5--5--5--|
--3------------|--5------------|--1------------|--3--3--3--3--3--3--|
--1------------|--3------------|---------------|--------------------|


  PM PM PM PM PM PM    PM   PM PM   PM                     PM PM PM PM PM PM
  E  E  E  E  E  E     Q    E  Q    E     H        Q       E  E  E  E  E  E
--------------------|------------------|----------------|--------------------|
--------------------|------------------|----------------|--------------------|
--------------------|------------------|----------------|--------------------|
--5--5--5--5--5--5--|------------------|--5--------8----|--5--5--5--5--5--5--|
--3--3--3--3--3--3--|--5----5--5----5--|--5--------8----|--3--3--3--3--3--3--|
--------------------|--3----3--3----3--|--3--------6----|--------------------|


  PM PM PM PM PM PM                                    PM PM PM PM PM PM
  E  E  E  E  E  E     H.              H.              E  E  E  E  E  E
--------------------|---------------|---------------|--------------------|
--------------------|---------------|---------------|--------------------|
--------------------|--8------------|--3------------|--------------------|
--8--8--8--8--8--8--|--8------------|--3------------|--5--5--5--5--5--5--|
--6--6--6--6--6--6--|--6------------|--1------------|--3--3--3--3--3--3--|
--------------------|---------------|---------------|--------------------|


  PM PM PM PM PM PM    PM   PM PM   PM                     PM PM PM PM PM PM
  E  E  E  E  E  E     Q    E  Q    E     H        Q       E  E  E  E  E  E
--------------------|------------------|----------------|--------------------|
--------------------|------------------|----------------|--------------------|
--------------------|------------------|----------------|--------------------|
--5--5--5--5--5--5--|------------------|--5--------8----|--5--5--5--5--5--5--|
--3--3--3--3--3--3--|--5----5--5----5--|--5--------8----|--3--3--3--3--3--3--|
--------------------|--3----3--3----3--|--3--------6----|--------------------|


  PM PM PM PM PM PM
  E  E  E  E  E  E     H.              H.              H.
--------------------|---------------|---------------|---------------|
--------------------|---------------|---------------|---------------|
--------------------|--8------------|--3------------|--5------------|
--8--8--8--8--8--8--|--8------------|--3------------|--5------------|
--6--6--6--6--6--6--|--6------------|--1------------|--3------------|
--------------------|---------------|---------------|---------------|


   H.              H.              H.                H.
----------------|---------------|---------------|------------------|
----------------|---------------|---------------|------------------|
--10------------|--7------------|--7------------|------------------|
--10------------|--7------------|--7------------|--5g8~------------|
---8------------|--5------------|--5------------|------------------|
----------------|---------------|---------------|------------------|


  Q    E   E   E   E         H.                Q     E    E    Q
----------------------|--------------------|------------------------|
----------------------|--------------------|------------------------|
----------------------|--------------------|------------------------|
--8----8S--7----------|--10g13~------------|--13----13S--12S--10----|
--------------10S--8--|--------------------|------------------------|
----------------------|--------------------|------------------------|


      H.                Q     E    E    Q        H.
--------------------|------------------------|-----------------|
--------------------|------------------------|-----------------|
--------------------|------------------------|-----------------|
--10g12~------------|--12----12S--13S--12----|--10~------------|
--------------------|------------------------|-----------------|
--------------------|------------------------|-----------------|


  H        E   E     H.               Q    E   E   E   E         H.
------------------|----------------|----------------------|--------------------|
------------------|----------------|----------------------|--------------------|
------------------|----------------|----------------------|--------------------|
--L--------L--10--|--8~------------|--8----8S--7----------|--10g13~------------|
------------------|----------------|--------------10S--8--|--------------------|
------------------|----------------|----------------------|--------------------|


   Q     Q.      E      H.                Q     Q.      E      H.
--------------------|-----------------|--------------------|-----------------|
--------------------|-----------------|--------------------|-----------------|
--------------------|-----------------|--------------------|-----------------|
--13----15------17--|--17~------------|--17----15------17--|--19~------------|
--------------------|-----------------|--------------------|-----------------|
--------------------|-----------------|--------------------|-----------------|


                       PM PM PM PM         PM PM               PM PM PM PM
  H.              Q    E  E  E  E     Q    E  E  Q        Q    E  E  E  E
---------------|-------------------|-------------------|-------------------|
---------------|-------------------|-------------------|-------------------|
---------------|--9----------------|--9----------9s----|--5----------------|
--L------------|--9----9--9--9--9--|--9----9--9--9s----|--5----5--5--5--5--|
---------------|--7----7--7--7--7--|--7----7--7--7s----|--3----3--3--3--3--|
---------------|-------------------|-------------------|-------------------|


       PM PM                PM  PM  PM  PM           PM  PM
  Q    E  E  Q        Q     E   E   E   E      Q     E   E   Q
------------------|------------------------|----------------------|
------------------|------------------------|----------------------|
--5----------5----|--12--------------------|--12------------12----|
--5----5--5--5----|--12----12--12--12--12--|--12----12--12--12----|
--3----3--3--3----|--10----10--10--10--10--|--10----10--10--10----|
------------------|------------------------|----------------------|


       PM PM PM PM                           PM PM PM PM         PM PM
  Q    E  E  E  E     H        E  E     Q    E  E  E  E     Q    E  E  Q
-------------------|-----------------|-------------------|-------------------|
-------------------|-----------------|-------------------|-------------------|
--7----------------|--7--------5--7--|--9----------------|--9----------9s----|
--7----7--7--7--7--|--7--------5--7--|--9----9--9--9--9--|--9----9--9--9s----|
--5----5--5--5--5--|--5--------3--5--|--7----7--7--7--7--|--7----7--7--7s----|
-------------------|-----------------|-------------------|-------------------|


       PM PM PM PM         PM PM                PM  PM  PM  PM
  Q    E  E  E  E     Q    E  E  Q        Q     E   E   E   E
-------------------|------------------|------------------------|
-------------------|------------------|------------------------|
--5----------------|--5----------5----|--12--------------------|
--5----5--5--5--5--|--5----5--5--5----|--12----12--12--12--12--|
--3----3--3--3--3--|--3----3--3--3----|--10----10--10--10--10--|
-------------------|------------------|------------------------|


         PM  PM               PM PM PM PM         PM PM
   Q     E   E   Q       Q    E  E  E  E     Q    E  E  Q
----------------------|-------------------|------------------|
----------------------|-------------------|------------------|
--12------------12----|--7----------------|--7----------7----|
--12----12--12--12----|--7----7--7--7--7--|--7----7--7--7----|
--10----10--10--10----|--5----5--5--5--5--|--5----5--5--5----|
----------------------|-------------------|------------------|


      W                     Q.      Q.      Q        Q     Q     H
------------------------|------------------------|-------------------------|
------------------------|------------------------|-------------------------|
------------------------|------------------------|-------------------------|
--10g14~----------------|--16------14------16----|--17----16----14~--------|
------------------------|------------------------|-------------------------|
------------------------|------------------------|-------------------------|


  W                    H.             E    E       Q.      Q.      Q
-------------------|---------------------------|------------------------|
-------------------|---------------------------|------------------------|
-------------------|--12~------------14S--15S--|--14------12------14----|
--L----------------|---------------------------|------------------------|
-------------------|---------------------------|------------------------|
-------------------|---------------------------|------------------------|


                                               PM PM          PM
   W                    W                   E  E  E  H        E
---------------------|-------------------|-----------------------|
---------------------|-------------------|-----------------------|
--15~----------------|--L----------------|--5--------5-----------|
---------------------|-------------------|--5--5--5--5--------5--|
---------------------|-------------------|--3--3--3--3--------3--|
---------------------|-------------------|-----------------------|


     PM PM        PM PM                    PM PM                    PM PM
  E  E  E  Q.     E  E     E  E  E  Q.     E  E     E  E  E  Q.     E  E
------------------------|------------------------|------------------------|
------------------------|------------------------|------------------------|
--5--------5------------|------------------------|------------------------|
--5--5--5--5------3--2--|--3--2-----5------------|--3--2-----5------------|
--3--3--3--3------1--0--|--1--0--x--5------5--5--|--1--0--x--5------5--5--|
------------------------|-----------3------3--3--|-----------3------3--3--|


                     |--3--|
    Q.       Q    E  S  S  S  E     Q.      Q.     Q
---------------------------------|----------------------|
---------------------------------|----------------------|
---------------------------------|----------------------|
--5g8~------------8--7h-8p-7-----|--7-------------------|
------------10---------------10--|---------10------8----|
---------------------------------|----------------------|


                                PM PM PM PM
  Q.      Q.      Q        Q    E  E  E  E  Q       W
-----------------------|-------------------------|-------------------|
-----------------------|-------------------------|-------------------|
-----------------------|-------------------------|-------------------|
---------12------10----|--12----5--3-------------|-------------------|
--9--------------------|--------3--1--7--5--3----|-------------------|
-----------------------|--------------5--3--1----|-------------------|


  W                   W                   W                   W
-------------------|-------------------|-------------------|-------------------|
-------------------|-------------------|-------------------|-------------------|
-------------------|-------------------|-------------------|-------------------|
-------------------|-------------------|-------------------|-------------------|
-------------------|-------------------|-------------------|-------------------|
-------------------|-------------------|-------------------|-------------------|


  W                   W                   W                   W
-------------------|-------------------|-------------------|-------------------|
-------------------|-------------------|-------------------|-------------------|
-------------------|-------------------|-------------------|-------------------|
-------------------|-------------------|-------------------|-------------------|
-------------------|-------------------|-------------------|-------------------|
-------------------|-------------------|-------------------|-------------------|


  W                   W                   W                   W
-------------------|-------------------|-------------------|-------------------|
-------------------|-------------------|-------------------|-------------------|
-------------------|-------------------|-------------------|-------------------|
-------------------|-------------------|-------------------|-------------------|
-------------------|-------------------|-------------------|-------------------|
-------------------|-------------------|-------------------|-------------------|


  W                   W                   W
-------------------|-------------------|-------------------|
-------------------|-------------------|-------------------|
-------------------|-------------------|-------------------|
-------------------|-------------------|-------------------|
-------------------|-------------------|-------------------|
-------------------|-------------------|-------------------|


  PM   PM PM             PM   PM PM               PM   PM PM
  Q    E  E  H           Q    E  E  Q     Q       Q    E  E  H
----------------------|------------------------|----------------------|
----------------------|------------------------|----------------------|
----------------------|------------------------|----------------------|
-------------8--------|-------------8S----7----|-------------3--------|
--8----8--8--8--------|--8----8--8--8S----7----|--3----3--3--3--------|
--6----6--6--6--------|--6----6--6--6S----5----|--1----1--1--1--------|


  PM   PM PM               PM   PM PM             PM   PM PM
  Q    E  E  Q     Q       Q    E  E  H           Q    E  E  Q     Q
------------------------|----------------------|------------------------|
------------------------|----------------------|------------------------|
------------------------|----------------------|------------------------|
-------------3S----4----|-------------5--------|-------------5S----7----|
--3----3--3--3S----4----|--5----5--5--5--------|--5----5--5--5S----7----|
--1----1--1--1S----2----|--3----3--3--3--------|--3----3--3--3S----5----|


  PM   PM PM                  PM PM                  PM   PM PM
  Q    E  E  H           Q    E  E  E  E   E   E     Q    E  E  H
----------------------|---------------------------|----------------------|
----------------------|---------------------------|----------------------|
-------------7--------|--8------------------------|----------------------|
--7----7--7--7--------|--8----8--8--7-------------|-------------8--------|
--5----5--5--5--------|--6----6--6--7-------------|--8----8--8--8--------|
----------------------|-------------5--1h--5h--6--|--6----6--6--6--------|


  PM   PM PM               PM   PM PM             PM   PM PM
  Q    E  E  Q     Q       Q    E  E  H           Q    E  E  Q     Q
------------------------|----------------------|------------------------|
------------------------|----------------------|------------------------|
------------------------|----------------------|------------------------|
-------------8S----7----|-------------3--------|-------------3S----4----|
--8----8--8--8S----7----|--3----3--3--3--------|--3----3--3--3S----4----|
--6----6--6--6S----5----|--1----1--1--1--------|--1----1--1--1S----2----|


  PM   PM PM             PM   PM PM               PM   PM PM
  Q    E  E  H           Q    E  E  Q     Q       Q    E  E  H
----------------------|------------------------|----------------------|
----------------------|------------------------|----------------------|
----------------------|------------------------|-------------7--------|
-------------5--------|-------------5S----7----|--7----7--7--7--------|
--5----5--5--5--------|--5----5--5--5S----7----|--5----5--5--5--------|
--3----3--3--3--------|--3----3--3--3S----5----|----------------------|


       PM PM
  Q    E  E  Q    E  E     W                   W
------------------------|-------------------|-------------------|
------------------------|-------------------|-------------------|
--8---------------------|-------------------|-------------------|
--8----8--8-------3--3--|--5----------------|--L----------------|
--6----6--6--3----3--3--|--5----------------|--L----------------|
-------------1----1--1--|--3----------------|--L----------------|


       PM PM PM PM PM PM    PM PM PM PM PM PM PM PM         PM PM PM PM PM PM
  Q    E  E  E  E  E  E     E  E  E  E  E  E  E  E     Q    E  E  E  E  E  E
-------------------------|--------------------------|-------------------------|
-------------------------|--------------------------|-------------------------|
--3----------------------|--------------------------|-------------------------|
--3----3--3--3--3--3--3--|--3--3--3--3--3--3--3--3--|--3----------------------|
--1----1--1--1--1--1--1--|--1--1--1--1--1--1--1--1--|--3----3--3--3--3--3--3--|
-------------------------|--------------------------|--1----1--1--1--1--1--1--|


  PM PM PM PM PM PM PM PM         PM PM PM PM PM PM    PM PM PM PM PM PM PM PM
  E  E  E  E  E  E  E  E     Q    E  E  E  E  E  E     E  E  E  E  E  E  E  E
--------------------------|-------------------------|--------------------------|
--------------------------|-------------------------|--------------------------|
--------------------------|-------------------------|--------------------------|
--------------------------|--5----------------------|--------------------------|
--3--3--3--3--3--3--3--3--|--5----5--5--5--5--5--5--|--5--5--5--5--5--5--5--5--|
--1--1--1--1--1--1--1--1--|--3----3--3--3--3--3--3--|--3--3--3--3--3--3--3--3--|


  H         E   Q     E     E   E   E  E   E  E  E  E
-------------------------|-----------------------------|
-------------------------|-----------------------------|
-------------------------|-----------------------------|
--3--------10--11----12--|--L--11--10--8--10--8--5--7--|
--3----------------------|-----------------------------|
--1---------8---9----10--|--L---9---8--6---8--6--3--5--|


       PM PM PM PM PM PM    PM PM PM PM PM PM PM PM         PM PM PM PM PM PM
  Q    E  E  E  E  E  E     E  E  E  E  E  E  E  E     Q    E  E  E  E  E  E
-------------------------|--------------------------|-------------------------|
-------------------------|--------------------------|-------------------------|
--3----------------------|--------------------------|-------------------------|
--3----3--3--3--3--3--3--|--3--3--3--3--3--3--3--3--|--3----------------------|
--1----1--1--1--1--1--1--|--1--1--1--1--1--1--1--1--|--3----3--3--3--3--3--3--|
-------------------------|--------------------------|--1----1--1--1--1--1--1--|


  PM PM PM PM PM PM PM PM
  E  E  E  E  E  E  E  E     Q    Q    H           Q    Q    H
--------------------------|---------------------|---------------------|
--------------------------|---------------------|---------------------|
--------------------------|--5----5-------------|--7----7-------------|
--------------------------|--5----5-------------|--7----7-------------|
--3--3--3--3--3--3--3--3--|--3----3-------------|--5----5-------------|
--1--1--1--1--1--1--1--1--|---------------------|---------------------|


  W                   E  E  E  E  E  Q    E     E  E  E  E  H
-------------------|-------------------------|-----------------------||
-------------------|-------------------------|--8--8--8--8-----------||
-------------------|-----7--7--7--7----------|--7--7--7--7-----------||
-------------------|-----5--5--5--5----------|--5--5--5--5-----------||
-------------------|-----5--5--5--5----------|-----------------------||
-------------------|-------------------------|-----------------------||


********************************************************************************
################################################################################
********************************************************************************


Rhythm Guitar 2


    W                   W                   W
E||-------------------|-------------------|-------------------|
B||-------------------|-------------------|-------------------|
G||-------------------|-------------------|-------------------|
D||-------------------|-------------------|-------------------|
A||-------------------|-------------------|-------------------|
E||-------------------|-------------------|-------------------|


  W                   W                   W                   W
-------------------|-------------------|-------------------|-------------------|
-------------------|-------------------|-------------------|-------------------|
-------------------|-------------------|-------------------|-------------------|
-------------------|-------------------|-------------------|-------------------|
-------------------|-------------------|-------------------|-------------------|
-------------------|-------------------|-------------------|-------------------|


  W                   W                   W                   W
-------------------|-------------------|-------------------|-------------------|
-------------------|-------------------|-------------------|-------------------|
-------------------|-------------------|-------------------|-------------------|
-------------------|-------------------|-------------------|-------------------|
-------------------|-------------------|-------------------|-------------------|
-------------------|-------------------|-------------------|-------------------|


  W                   W                   W                   W
-------------------|-------------------|-------------------|-------------------|
-------------------|-------------------|-------------------|-------------------|
-------------------|-------------------|-------------------|-------------------|
-------------------|-------------------|-------------------|-------------------|
-------------------|-------------------|-------------------|-------------------|
-------------------|-------------------|-------------------|-------------------|


  W                   W                   W                   W
-------------------|-------------------|-------------------|-------------------|
-------------------|-------------------|-------------------|-------------------|
-------------------|-------------------|-------------------|-------------------|
-------------------|-------------------|-------------------|-------------------|
-------------------|-------------------|-------------------|-------------------|
-------------------|-------------------|-------------------|-------------------|


  W                   W                   W                   W
-------------------|-------------------|-------------------|-------------------|
-------------------|-------------------|-------------------|-------------------|
-------------------|-------------------|-------------------|-------------------|
-------------------|-------------------|-------------------|-------------------|
-------------------|-------------------|-------------------|-------------------|
-------------------|-------------------|-------------------|-------------------|


  W                   W                   W                   W
-------------------|-------------------|-------------------|-------------------|
-------------------|-------------------|-------------------|-------------------|
-------------------|-------------------|-------------------|-------------------|
-------------------|-------------------|-------------------|-------------------|
-------------------|-------------------|-------------------|-------------------|
-------------------|-------------------|-------------------|-------------------|


                           PM PM      PM PM         PM
  W                   Q    E  E  Q    E  E     Q    E  H        E
-------------------|------------------------|----------------------|
-------------------|------------------------|----------------------|
-------------------|--3---------------------|----------7--------L--|
-------------------|--3----3--3--3----------|--5-------7--------L--|
-------------------|--1----1--1--3----3--3--|--5----5--5--------L--|
-------------------|-------------1----1--1--|--3----3--------------|


  Q    Q    Q    Q       Q    Q    Q    Q       Q    Q    Q    Q
----------------------|----------------------|----------------------|
----------------------|----------------------|----------------------|
--3----3----3----3----|----------------------|--3----3----3----3----|
--3----3----3----3----|--3----3----3----3----|--3----3----3----3----|
--1----1----1----1----|--3----3----3----3----|--1----1----1----1----|
----------------------|--1----1----1----1----|----------------------|


  Q    Q    Q    Q       W                   W
----------------------|-------------------|-------------------|
----------------------|-------------------|-------------------|
----------------------|-------------------|-------------------|
--3----3----3----3----|-------------------|-------------------|
--3----3----3----3----|-------------------|-------------------|
--1----1----1----1----|-------------------|-------------------|


       PM PM      PM PM         PM      PM PM
  Q    E  E  Q    E  E     Q    E  Q    E  E  E     E  E  E  E  E  E  E  E
------------------------|------------------------|--------------------------|
------------------------|------------------------|--------------------------|
--8---------------------|--3-------5-------------|--7--7--7--7--7--7--7--7--|
--8----8--8--3----------|--3----3--5----5--5--5--|--7--7--7--7--7--7--7--7--|
--6----6--6--3----3--3--|--1----1--3----3--3--3--|--5--5--5--5--5--5--5--5--|
-------------1----1--1--|------------------------|--------------------------|


                                                           PM PM          PM
  E  E  E  E  E  E  E  E     E  E  E  E  E  E  E  E     E  E  E  H        E
--------------------------|--------------------------|-----------------------|
--------------------------|--------------------------|-----------------------|
--7--7--7--7--7--7--7--7--|--8--8--8--8--------------|--5--------5-----------|
--7--7--7--7--7--7--7--7--|--8--8--8--8--3--3--3--3--|--5--5--5--5--------5--|
--5--5--5--5--5--5--5--5--|--6--6--6--6--3--3--3--3--|--3--3--3--3--------3--|
--------------------------|--------------1--1--1--1--|-----------------------|


     PM PM        PM PM                    PM PM                    PM PM
  E  E  E  Q.     E  E     E  E  E  Q.     E  E     E  E  E  Q.     E  E
------------------------|------------------------|------------------------|
------------------------|------------------------|------------------------|
--5--------5------------|------------------------|------------------------|
--5--5--5--5------3--2--|--3--2-----5------------|--3--2-----5------------|
--3--3--3--3------1--0--|--1--0--x--5------5--5--|--1--0--x--5------5--5--|
------------------------|-----------3------3--3--|-----------3------3--3--|


  W                   W                   Q.     Q.     Q
-------------------|-------------------|---------------------|
-------------------|-------------------|---------------------|
--8----------------|-------------------|---------7------5----|
--8----------------|--3----------------|--5------7------5----|
--6----------------|--3----------------|--5------5------3----|
-------------------|--1----------------|--3------------------|


       PM PM PM PM PM PM
  Q    E  E  E  E  E  E     W                   W
-------------------------|-------------------|-------------------|
-------------------------|-------------------|-------------------|
--7----------------------|-------------------|-------------------|
--7----6--5--4--3--2-----|-------------------|-------------------|
--5----4--3--2--1--0--6--|-------------------|-------------------|
----------------------4--|-------------------|-------------------|


       PM PM      PM PM         PM
  Q    E  E  Q    E  E     Q    E  H        E     Q    Q    Q    Q
------------------------|----------------------|----------------------|
------------------------|----------------------|----------------------|
--3---------------------|----------7--------L--|--3----3----3----3----|
--3----3--3--3----------|--5-------7--------L--|--3----3----3----3----|
--1----1--1--3----3--3--|--5----5--5--------L--|--1----1----1----1----|
-------------1----1--1--|--3----3--------------|----------------------|


  Q    Q    Q    Q       Q    Q    Q    Q       Q    Q    Q    Q
----------------------|----------------------|----------------------|
----------------------|----------------------|----------------------|
----------------------|--3----3----3----3----|----------------------|
--3----3----3----3----|--3----3----3----3----|--3----3----3----3----|
--3----3----3----3----|--1----1----1----1----|--3----3----3----3----|
--1----1----1----1----|----------------------|--1----1----1----1----|


                                               PM PM      PM PM
  W                   W                   Q    E  E  Q    E  E
-------------------|-------------------|------------------------|
-------------------|-------------------|------------------------|
-------------------|-------------------|--8---------------------|
-------------------|-------------------|--8----8--8--3----------|
-------------------|-------------------|--6----6--6--3----3--3--|
-------------------|-------------------|-------------1----1--1--|


       PM      PM PM
  Q    E  Q    E  E  E     E  E  E  E  E  E  E  E     E  E  E  E  E  E  E  E
------------------------|--------------------------|--------------------------|
------------------------|--------------------------|--------------------------|
--3-------5-------------|--7--7--7--7--7--7--7--7--|--7--7--7--7--7--7--7--7--|
--3----3--5----5--5--5--|--7--7--7--7--7--7--7--7--|--7--7--7--7--7--7--7--7--|
--1----1--3----3--3--3--|--5--5--5--5--5--5--5--5--|--5--5--5--5--5--5--5--5--|
------------------------|--------------------------|--------------------------|


                                                    PM   PM PM
  E  E  E  E  E  E  E  E     E  E  H        Q       Q    E  E  H
--------------------------|----------------------|----------------------|
--------------------------|----------------------|----------------------|
--8--8--8--8--------------|----------------------|----------------------|
--8--8--8--8--3--3--3--3--|----------------------|-------------8--------|
--6--6--6--6--3--3--3--3--|--5--5----------------|--8----8--8--8--------|
--------------1--1--1--1--|--3--3----------------|--6----6--6--6--------|


  PM   PM PM               PM   PM PM             PM   PM PM
  Q    E  E  Q     Q       Q    E  E  H           Q    E  E  Q     Q
------------------------|----------------------|------------------------|
------------------------|----------------------|------------------------|
------------------------|----------------------|------------------------|
-------------8S----7----|-------------3--------|-------------3S----4----|
--8----8--8--8S----7----|--3----3--3--3--------|--3----3--3--3S----4----|
--6----6--6--6S----5----|--1----1--1--1--------|--1----1--1--1S----2----|


  PM   PM PM             PM   PM PM               PM   PM PM
  Q    E  E  H           Q    E  E  Q     Q       Q    E  E  H
----------------------|------------------------|----------------------|
----------------------|------------------------|----------------------|
----------------------|------------------------|-------------7--------|
-------------5--------|-------------5S----7----|--7----7--7--7--------|
--5----5--5--5--------|--5----5--5--5S----7----|--5----5--5--5--------|
--3----3--3--3--------|--3----3--3--3S----5----|----------------------|


       PM PM                  PM   PM PM             PM   PM PM
  Q    E  E  E  E   E   E     Q    E  E  H           Q    E  E  Q     Q
---------------------------|----------------------|------------------------|
---------------------------|----------------------|------------------------|
--8------------------------|----------------------|------------------------|
--8----8--8--7-------------|-------------8--------|-------------8S----7----|
--6----6--6--7-------------|--8----8--8--8--------|--8----8--8--8S----7----|
-------------5--1h--5h--6--|--6----6--6--6--------|--6----6--6--6S----5----|


  PM   PM PM             PM   PM PM               PM   PM PM
  Q    E  E  H           Q    E  E  Q     Q       Q    E  E  H
----------------------|------------------------|----------------------|
----------------------|------------------------|----------------------|
----------------------|------------------------|----------------------|
-------------3--------|-------------3S----4----|-------------5--------|
--3----3--3--3--------|--3----3--3--3S----4----|--5----5--5--5--------|
--1----1--1--1--------|--1----1--1--1S----2----|--3----3--3--3--------|


  PM   PM PM               PM   PM PM                  PM PM
  Q    E  E  Q     Q       Q    E  E  H           Q    E  E  Q    E  E
------------------------|----------------------|------------------------|
------------------------|----------------------|------------------------|
------------------------|-------------7--------|--8---------------------|
-------------5S----7----|--7----7--7--7--------|--8----8--8-------3--3--|
--5----5--5--5S----7----|--5----5--5--5--------|--6----6--6--3----3--3--|
--3----3--3--3S----5----|----------------------|-------------1----1--1--|


  W                   W                   W                   W
-------------------|-------------------|-------------------|-------------------|
-------------------|-------------------|-------------------|-------------------|
-------------------|-------------------|-------------------|-------------------|
-------------------|-------------------|-------------------|-------------------|
-------------------|-------------------|-------------------|-------------------|
-------------------|-------------------|-------------------|-------------------|


  W                   W                   W                   W
-------------------|-------------------|-------------------|-------------------|
-------------------|-------------------|-------------------|-------------------|
-------------------|-------------------|-------------------|-------------------|
-------------------|-------------------|-------------------|-------------------|
-------------------|-------------------|-------------------|-------------------|
-------------------|-------------------|-------------------|-------------------|


  W                   W                   W                   W
-------------------|-------------------|-------------------|-------------------|
-------------------|-------------------|-------------------|-------------------|
-------------------|-------------------|-------------------|-------------------|
-------------------|-------------------|-------------------|-------------------|
-------------------|-------------------|-------------------|-------------------|
-------------------|-------------------|-------------------|-------------------|


  W                   W                   W                   W
-------------------|-------------------|-------------------|-------------------|
-------------------|-------------------|-------------------|-------------------|
-------------------|-------------------|-------------------|-------------------|
-------------------|-------------------|-------------------|-------------------|
-------------------|-------------------|-------------------|-------------------|
-------------------|-------------------|-------------------|-------------------|


  W                   W                   W                   W
-------------------|-------------------|-------------------|-------------------|
-------------------|-------------------|-------------------|-------------------|
-------------------|-------------------|-------------------|-------------------|
-------------------|-------------------|-------------------|-------------------|
-------------------|-------------------|-------------------|-------------------|
-------------------|-------------------|-------------------|-------------------|


       PM PM      PM PM         PM
  Q    E  E  Q    E  E     Q    E  H        E     Q    Q    Q    Q
------------------------|----------------------|----------------------|
------------------------|----------------------|----------------------|
--3---------------------|----------7--------L--|--3----3----3----3----|
--3----3--3--3----------|--5-------7--------L--|--3----3----3----3----|
--1----1--1--3----3--3--|--5----5--5--------L--|--1----1----1----1----|
-------------1----1--1--|--3----3--------------|----------------------|


  Q    Q    Q    Q       Q    Q    Q    Q       Q    Q    Q    Q
----------------------|----------------------|----------------------|
----------------------|----------------------|----------------------|
----------------------|--3----3----3----3----|----------------------|
--3----3----3----3----|--3----3----3----3----|--3----3----3----3----|
--3----3----3----3----|--1----1----1----1----|--3----3----3----3----|
--1----1----1----1----|----------------------|--1----1----1----1----|


                                               PM PM      PM PM
  W                   W                   Q    E  E  Q    E  E
-------------------|-------------------|------------------------|
-------------------|-------------------|------------------------|
-------------------|-------------------|--8---------------------|
-------------------|-------------------|--8----8--8--3----------|
-------------------|-------------------|--6----6--6--3----3--3--|
-------------------|-------------------|-------------1----1--1--|


       PM      PM PM
  Q    E  Q    E  E  E     E  E  E  E  E  E  E  E     E  E  E  E  E  E  E  E
------------------------|--------------------------|--------------------------|
------------------------|--------------------------|--------------------------|
--3-------5-------------|--7--7--7--7--7--7--7--7--|--7--7--7--7--7--7--7--7--|
--3----3--5----5--5--5--|--7--7--7--7--7--7--7--7--|--7--7--7--7--7--7--7--7--|
--1----1--3----3--3--3--|--5--5--5--5--5--5--5--5--|--5--5--5--5--5--5--5--5--|
------------------------|--------------------------|--------------------------|


                                                    PM   PM PM
  E  E  E  E  E  E  E  E     E  E  H        Q       Q    E  E  H
--------------------------|----------------------|----------------------|
--------------------------|----------------------|----------------------|
--8--8--8--8--------------|----------------------|----------------------|
--8--8--8--8--3--3--3--3--|----------------------|-------------8--------|
--6--6--6--6--3--3--3--3--|--5--5----------------|--8----8--8--8--------|
--------------1--1--1--1--|--3--3----------------|--6----6--6--6--------|


  PM   PM PM               PM   PM PM             PM   PM PM
  Q    E  E  Q     Q       Q    E  E  H           Q    E  E  Q     Q
------------------------|----------------------|------------------------|
------------------------|----------------------|------------------------|
------------------------|----------------------|------------------------|
-------------8S----7----|-------------3--------|-------------3S----4----|
--8----8--8--8S----7----|--3----3--3--3--------|--3----3--3--3S----4----|
--6----6--6--6S----5----|--1----1--1--1--------|--1----1--1--1S----2----|


  PM   PM PM             PM   PM PM               PM   PM PM
  Q    E  E  H           Q    E  E  Q     Q       Q    E  E  H
----------------------|------------------------|----------------------|
----------------------|------------------------|----------------------|
----------------------|------------------------|-------------7--------|
-------------5--------|-------------5S----7----|--7----7--7--7--------|
--5----5--5--5--------|--5----5--5--5S----7----|--5----5--5--5--------|
--3----3--3--3--------|--3----3--3--3S----5----|----------------------|


       PM PM                  PM   PM PM             PM   PM PM
  Q    E  E  E  E   E   E     Q    E  E  H           Q    E  E  Q     Q
---------------------------|----------------------|------------------------|
---------------------------|----------------------|------------------------|
--8------------------------|----------------------|------------------------|
--8----8--8--7-------------|-------------8--------|-------------8S----7----|
--6----6--6--7-------------|--8----8--8--8--------|--8----8--8--8S----7----|
-------------5--1h--5h--6--|--6----6--6--6--------|--6----6--6--6S----5----|


  PM   PM PM             PM   PM PM               PM   PM PM
  Q    E  E  H           Q    E  E  Q     Q       Q    E  E  H
----------------------|------------------------|----------------------|
----------------------|------------------------|----------------------|
----------------------|------------------------|----------------------|
-------------3--------|-------------3S----4----|-------------5--------|
--3----3--3--3--------|--3----3--3--3S----4----|--5----5--5--5--------|
--1----1--1--1--------|--1----1--1--1S----2----|--3----3--3--3--------|


  PM   PM PM               PM   PM PM                  PM PM
  Q    E  E  Q     Q       Q    E  E  H           Q    E  E  Q    E  E
------------------------|----------------------|------------------------|
------------------------|----------------------|------------------------|
------------------------|-------------7--------|--8---------------------|
-------------5S----7----|--7----7--7--7--------|--8----8--8-------3--3--|
--5----5--5--5S----7----|--5----5--5--5--------|--6----6--6--3----3--3--|
--3----3--3--3S----5----|----------------------|-------------1----1--1--|


  H.              H.              H.              H.              H.
---------------|---------------|---------------|---------------|---------------|
---------------|---------------|---------------|---------------|---------------|
--3------------|--3------------|--7------------|--7------------|--8------------|
--3------------|--3------------|--7------------|--7------------|--8------------|
--1------------|--1------------|--5------------|--5------------|--6------------|
---------------|---------------|---------------|---------------|---------------|


  H.              H.              H.              H.
---------------|---------------|---------------|---------------|
---------------|---------------|---------------|---------------|
---------------|---------------|--8------------|--8------------|
--3------------|--5------------|--8------------|--8------------|
--3------------|--5------------|--6------------|--6------------|
--1------------|--3------------|---------------|---------------|


   H.              H.              H.              H.
----------------|---------------|---------------|---------------|
----------------|---------------|---------------|---------------|
--10------------|--3------------|---------------|--8------------|
--10------------|--3------------|--3------------|--8------------|
---8------------|--1------------|--3------------|--6------------|
----------------|---------------|--1------------|---------------|


                                                  PM PM PM PM PM PM
  H.              H.              H.              E  E  E  E  E  E
---------------|---------------|---------------|--------------------|
---------------|---------------|---------------|--------------------|
---------------|---------------|--3------------|--------------------|
--3------------|--5------------|--3------------|--5--5--5--5--5--5--|
--3------------|--5------------|--1------------|--3--3--3--3--3--3--|
--1------------|--3------------|---------------|--------------------|


  PM PM PM PM PM PM    PM   PM PM   PM                     PM PM PM PM PM PM
  E  E  E  E  E  E     Q    E  Q    E     H        Q       E  E  E  E  E  E
--------------------|------------------|----------------|--------------------|
--------------------|------------------|----------------|--------------------|
--------------------|------------------|----------------|--------------------|
--5--5--5--5--5--5--|------------------|--5--------8----|--5--5--5--5--5--5--|
--3--3--3--3--3--3--|--5----5--5----5--|--5--------8----|--3--3--3--3--3--3--|
--------------------|--3----3--3----3--|--3--------6----|--------------------|


  PM PM PM PM PM PM                                    PM PM PM PM PM PM
  E  E  E  E  E  E     H.              H.              E  E  E  E  E  E
--------------------|---------------|---------------|--------------------|
--------------------|---------------|---------------|--------------------|
--------------------|--8------------|--3------------|--------------------|
--8--8--8--8--8--8--|--8------------|--3------------|--5--5--5--5--5--5--|
--6--6--6--6--6--6--|--6------------|--1------------|--3--3--3--3--3--3--|
--------------------|---------------|---------------|--------------------|


  PM PM PM PM PM PM    PM   PM PM   PM                     PM PM PM PM PM PM
  E  E  E  E  E  E     Q    E  Q    E     H        Q       E  E  E  E  E  E
--------------------|------------------|----------------|--------------------|
--------------------|------------------|----------------|--------------------|
--------------------|------------------|----------------|--------------------|
--5--5--5--5--5--5--|------------------|--5--------8----|--5--5--5--5--5--5--|
--3--3--3--3--3--3--|--5----5--5----5--|--5--------8----|--3--3--3--3--3--3--|
--------------------|--3----3--3----3--|--3--------6----|--------------------|


  PM PM PM PM PM PM
  E  E  E  E  E  E     H.              H.              H.
--------------------|---------------|---------------|---------------|
--------------------|---------------|---------------|---------------|
--------------------|--8------------|--3------------|--5------------|
--8--8--8--8--8--8--|--8------------|--3------------|--5------------|
--6--6--6--6--6--6--|--6------------|--1------------|--3------------|
--------------------|---------------|---------------|---------------|


   H.              H.              H.              H.
----------------|---------------|---------------|---------------|
----------------|---------------|---------------|---------------|
--10------------|--7------------|--7------------|---------------|
--10------------|--7------------|--7------------|--5------------|
---8------------|--5------------|--5------------|--5------------|
----------------|---------------|---------------|--3------------|


       PM PM                              PM PM
  Q    E  E  Q       H.              Q    E  E  Q       H.
------------------|---------------|------------------|---------------|
------------------|---------------|------------------|---------------|
------------------|--8------------|--8----------8----|--3------------|
--5----------5----|--8------------|--8----8--8--8----|--3------------|
--5----5--5--5----|--6------------|--6----6--6--6----|--1------------|
--3----3--3--3----|---------------|------------------|---------------|


       PM PM                                 PM  PM
  Q    E  E  Q        H.               Q     E   E   E  E     H.
------------------|----------------|-----------------------|---------------|
------------------|----------------|-----------------------|---------------|
--3----------3----|--10------------|--10-------------------|---------------|
--3----3--3--3----|--10------------|--10----10--10--10-----|--5------------|
--1----1--1--1----|---8------------|---8-----8---8---8--8--|--5------------|
------------------|----------------|--------------------6--|--3------------|


       PM PM                              PM PM
  Q    E  E  Q       H.              Q    E  E  Q       H.
------------------|---------------|------------------|---------------|
------------------|---------------|------------------|---------------|
------------------|--8------------|--8----------8----|--5------------|
--5----------5----|--8------------|--8----8--8--8----|--5------------|
--5----5--5--5----|--6------------|--6----6--6--6----|--3------------|
--3----3--3--3----|---------------|------------------|---------------|


       PM PM                                              PM PM PM PM
  Q    E  E  Q       H.              H.              Q    E  E  E  E
------------------|---------------|---------------|-------------------|
------------------|---------------|---------------|-------------------|
--5----------5----|--7------------|--7------------|--9----------------|
--5----5--5--5----|--7------------|--7------------|--9----9--9--9--9--|
--3----3--3--3----|--5------------|--5------------|--7----7--7--7--7--|
------------------|---------------|---------------|-------------------|


       PM PM               PM PM PM PM         PM PM
  Q    E  E  Q        Q    E  E  E  E     Q    E  E  Q
-------------------|-------------------|------------------|
-------------------|-------------------|------------------|
--9----------9s----|--5----------------|--5----------5----|
--9----9--9--9s----|--5----5--5--5--5--|--5----5--5--5----|
--7----7--7--7s----|--3----3--3--3--3--|--3----3--3--3----|
-------------------|-------------------|------------------|


         PM  PM  PM  PM           PM  PM               PM PM PM PM
   Q     E   E   E   E      Q     E   E   Q       Q    E  E  E  E
------------------------|----------------------|-------------------|
------------------------|----------------------|-------------------|
--12--------------------|--12------------12----|--7----------------|
--12----12--12--12--12--|--12----12--12--12----|--7----7--7--7--7--|
--10----10--10--10--10--|--10----10--10--10----|--5----5--5--5--5--|
------------------------|----------------------|-------------------|


                         PM PM PM PM         PM PM               PM PM PM PM
  H        E  E     Q    E  E  E  E     Q    E  E  Q        Q    E  E  E  E
-----------------|-------------------|-------------------|-------------------|
-----------------|-------------------|-------------------|-------------------|
--7--------5--7--|--9----------------|--9----------9s----|--5----------------|
--7--------5--7--|--9----9--9--9--9--|--9----9--9--9s----|--5----5--5--5--5--|
--5--------3--5--|--7----7--7--7--7--|--7----7--7--7s----|--3----3--3--3--3--|
-----------------|-------------------|-------------------|-------------------|


       PM PM                PM  PM  PM  PM           PM  PM
  Q    E  E  Q        Q     E   E   E   E      Q     E   E   Q
------------------|------------------------|----------------------|
------------------|------------------------|----------------------|
--5----------5----|--12--------------------|--12------------12----|
--5----5--5--5----|--12----12--12--12--12--|--12----12--12--12----|
--3----3--3--3----|--10----10--10--10--10--|--10----10--10--10----|
------------------|------------------------|----------------------|


       PM PM PM PM         PM PM              PM PM      PM PM
  Q    E  E  E  E     Q    E  E  Q       Q    E  E  Q    E  E
-------------------|------------------|------------------------|
-------------------|------------------|------------------------|
--7----------------|--7----------7----|--5----------5----------|
--7----7--7--7--7--|--7----7--7--7----|--5----5--5--5----5--5--|
--5----5--5--5--5--|--5----5--5--5----|--3----3--3--3----3--3--|
-------------------|------------------|------------------------|


       PM PM      PM PM         PM PM      PM PM         PM PM      PM PM
  Q    E  E  Q    E  E     Q    E  E  Q    E  E     Q    E  E  Q    E  E
------------------------|------------------------|------------------------|
------------------------|------------------------|------------------------|
--7----------7----------|--9----------9----------|--9----------9----------|
--7----7--7--7----7--7--|--9----9--9--9----9--9--|--9----9--9--9----9--9--|
--5----5--5--5----5--5--|--7----7--7--7----7--7--|--7----7--7--7----7--7--|
------------------------|------------------------|------------------------|


  W                   W                   W
-------------------|-------------------|-------------------|
-------------------|-------------------|-------------------|
--8----------------|-------------------|-------------------|
--8----------------|--3----------------|--5----------------|
--6----------------|--3----------------|--5----------------|
-------------------|--1----------------|--3----------------|


       PM PM                PM PM          PM       PM PM        PM PM
  Q    E  E  H           E  E  E  H        E     E  E  E  Q.     E  E
----------------------|-----------------------|------------------------|
----------------------|-----------------------|------------------------|
----------------------|--5--------5-----------|--5--------5------------|
--5----------3--------|--5--5--5--5--------5--|--5--5--5--5------3--2--|
--5----5--5--3--------|--3--3--3--3--------3--|--3--3--3--3------1--0--|
--3----3--3--1--------|-----------------------|------------------------|


                  PM PM                    PM PM
  E  E  E  Q.     E  E     E  E  E  Q.     E  E     W
------------------------|------------------------|-------------------|
------------------------|------------------------|-------------------|
------------------------|------------------------|--8----------------|
--3--2-----5------------|--3--2-----5------------|--8----------------|
--1--0--x--5------5--5--|--1--0--x--5------5--5--|--6----------------|
-----------3------3--3--|-----------3------3--3--|-------------------|


                                                 PM PM PM PM
  W                   Q.     Q.     Q       Q    E  E  E  E  Q
-------------------|---------------------|------------------------|
-------------------|---------------------|------------------------|
-------------------|---------7------5----|--7---------------------|
--3----------------|--5------7------5----|--7----5--3-------------|
--3----------------|--5------5------3----|--5----3--1--7--5--3----|
--1----------------|--3------------------|-------------5--3--1----|


  E  H        Q    E     W                   W
----------------------|-------------------|-------------------|
----------------------|-------------------|-------------------|
----------------------|-------------------|-------------------|
----------------------|-------------------|-------------------|
----------------------|-------------------|-------------------|
--x-------------------|-------------------|-------------------|


  W                   W                   W                   W
-------------------|-------------------|-------------------|-------------------|
-------------------|-------------------|-------------------|-------------------|
-------------------|-------------------|-------------------|-------------------|
-------------------|-------------------|-------------------|-------------------|
-------------------|-------------------|-------------------|-------------------|
-------------------|-------------------|-------------------|-------------------|


  W                   W                   W                   W
-------------------|-------------------|-------------------|-------------------|
-------------------|-------------------|-------------------|-------------------|
-------------------|-------------------|-------------------|-------------------|
-------------------|-------------------|-------------------|-------------------|
-------------------|-------------------|-------------------|-------------------|
-------------------|-------------------|-------------------|-------------------|


  W                   W                   W                   W
-------------------|-------------------|-------------------|-------------------|
-------------------|-------------------|-------------------|-------------------|
-------------------|-------------------|-------------------|-------------------|
-------------------|-------------------|-------------------|-------------------|
-------------------|-------------------|-------------------|-------------------|
-------------------|-------------------|-------------------|-------------------|


                      PM   PM PM             PM   PM PM
  W                   Q    E  E  H           Q    E  E  Q     Q
-------------------|----------------------|------------------------|
-------------------|----------------------|------------------------|
-------------------|----------------------|------------------------|
-------------------|-------------8--------|-------------8S----7----|
-------------------|--8----8--8--8--------|--8----8--8--8S----7----|
-------------------|--6----6--6--6--------|--6----6--6--6S----5----|


  PM   PM PM             PM   PM PM               PM   PM PM
  Q    E  E  H           Q    E  E  Q     Q       Q    E  E  H
----------------------|------------------------|----------------------|
----------------------|------------------------|----------------------|
----------------------|------------------------|----------------------|
-------------3--------|-------------3S----4----|-------------5--------|
--3----3--3--3--------|--3----3--3--3S----4----|--5----5--5--5--------|
--1----1--1--1--------|--1----1--1--1S----2----|--3----3--3--3--------|


  PM   PM PM               PM   PM PM                  PM PM
  Q    E  E  Q     Q       Q    E  E  H           Q    E  E  E  E   E   E
------------------------|----------------------|---------------------------|
------------------------|----------------------|---------------------------|
------------------------|-------------7--------|--8------------------------|
-------------5S----7----|--7----7--7--7--------|--8----8--8--7-------------|
--5----5--5--5S----7----|--5----5--5--5--------|--6----6--6--7-------------|
--3----3--3--3S----5----|----------------------|-------------5--1h--5h--6--|


  PM   PM PM             PM   PM PM               PM   PM PM
  Q    E  E  H           Q    E  E  Q     Q       Q    E  E  H
----------------------|------------------------|----------------------|
----------------------|------------------------|----------------------|
----------------------|------------------------|----------------------|
-------------8--------|-------------8S----7----|-------------3--------|
--8----8--8--8--------|--8----8--8--8S----7----|--3----3--3--3--------|
--6----6--6--6--------|--6----6--6--6S----5----|--1----1--1--1--------|


  PM   PM PM               PM   PM PM             PM   PM PM
  Q    E  E  Q     Q       Q    E  E  H           Q    E  E  Q     Q
------------------------|----------------------|------------------------|
------------------------|----------------------|------------------------|
------------------------|----------------------|------------------------|
-------------3S----4----|-------------5--------|-------------5S----7----|
--3----3--3--3S----4----|--5----5--5--5--------|--5----5--5--5S----7----|
--1----1--1--1S----2----|--3----3--3--3--------|--3----3--3--3S----5----|


  PM   PM PM                  PM PM
  Q    E  E  H           Q    E  E  Q    E  E     W
----------------------|------------------------|-------------------|
----------------------|------------------------|-------------------|
-------------7--------|--8---------------------|-------------------|
--7----7--7--7--------|--8----8--8-------3--3--|--5----------------|
--5----5--5--5--------|--6----6--6--3----3--3--|--5----------------|
----------------------|-------------1----1--1--|--3----------------|


                           PM PM PM PM PM PM    PM PM PM PM PM PM PM PM
  W                   Q    E  E  E  E  E  E     E  E  E  E  E  E  E  E
-------------------|-------------------------|--------------------------|
-------------------|-------------------------|--------------------------|
-------------------|--3----------------------|--------------------------|
--L----------------|--3----3--3--3--3--3--3--|--3--3--3--3--3--3--3--3--|
--L----------------|--1----1--1--1--1--1--1--|--1--1--1--1--1--1--1--1--|
--L----------------|-------------------------|--------------------------|


       PM PM PM PM PM PM    PM PM PM PM PM PM PM PM         PM PM PM PM PM PM
  Q    E  E  E  E  E  E     E  E  E  E  E  E  E  E     Q    E  E  E  E  E  E
-------------------------|--------------------------|-------------------------|
-------------------------|--------------------------|-------------------------|
-------------------------|--------------------------|-------------------------|
--3----------------------|--------------------------|--5----------------------|
--3----3--3--3--3--3--3--|--3--3--3--3--3--3--3--3--|--5----5--5--5--5--5--5--|
--1----1--1--1--1--1--1--|--1--1--1--1--1--1--1--1--|--3----3--3--3--3--3--3--|


  PM PM PM PM PM PM PM PM
  E  E  E  E  E  E  E  E     H         E   Q     E
--------------------------|-------------------------|
--------------------------|-------------------------|
--------------------------|-------------------------|
--------------------------|--3--------10--11----12--|
--5--5--5--5--5--5--5--5--|-------------------------|
--3--3--3--3--3--3--3--3--|--1---------8---9----10--|


  E   E   E  E   E  E  E  E     W                   W
-----------------------------|-------------------|-------------------|
-----------------------------|-------------------|-------------------|
-----------------------------|--3----------------|--L----------------|
--L--11--10--8--10--8--5--7--|--3----------------|--L----------------|
-----------------------------|--1----------------|--L----------------|
--L---9---8--6---8--6--3--5--|-------------------|-------------------|


  W                   W                   Q    Q    H
-------------------|-------------------|---------------------|
-------------------|-------------------|---------------------|
-------------------|-------------------|--5----5-------------|
--3----------------|--L----------------|--5----5-------------|
--3----------------|--L----------------|--3----3-------------|
--1----------------|--L----------------|---------------------|


  Q    Q    H           W                   E  E  E  E  E  Q    E
---------------------|-------------------|-------------------------|
---------------------|-------------------|-------------------------|
--7----7-------------|-------------------|-------------------------|
--7----7-------------|-------------------|-----5--5--5--5----------|
--5----5-------------|-------------------|-----5--5--5--5----------|
---------------------|-------------------|-----3--3--3--3----------|


  E  E  E  E  H
-----------------------||
-----------------------||
--7--7--7--7-----------||
--5--5--5--5-----------||
--5--5--5--5-----------||
-----------------------||


Duration Legend
---------------
W - whole
H - half
Q - quarter
E - 8th
S - 16th
T - 32nd
X - 64th
. - note dotted
|-n-|  - n-tuplets


Tablature Legend
----------------
L - tied note
x - dead note
g - grace note
(n) - ghost note
> - accentuded note
NH - natural harmonic
AH - artificial harmonic
TH - tapped harmonic
SH - semi harmonic
PH - pitch harmonic
h - hammer on
p - pull off
b - bend
br - bendRelease
pb - preBend
pbr - preBendRelease
brb - bendReleaseBend
\n/ - tremolo bar dip
\n - tremolo bar dive
-/n - tremolo bar Release up
/n\ - tremolo bar inverted dip
/n - tremolo bar return
-\n - tremolo bar Release down
S - shift slide
s - legato slide
/ -  slide into from below or out of upwards
\ -  slide into from above or out of downwards
~ - vibrato
W - wide vibrato
tr - trill
TP - tremolo picking
T - tapping
S - slap
P - pop
< - fade in
^ - brush up
v - brush down


******Special thanks to FredeX (http://profile.ultimate-guitar.com/FredeX/) for making 
guitar pro tab***
Tap to rate this tab
 
# A B C D E F G H I J K L M N O P Q R S T U V W X Y Z