Song name
# A B C D E F G H I J K L M N O P Q R S T U V W X Y Z

Falconhead - Its Not Right tab

Band: Falconhead
Song: It's Not Right
Tabbed By:evolver32(evolver_32@yahoo.com)

This is one of Falconhead's first songs. It's harder than most of 
their stuff and it's a pretty good song.
--There's only distortion on the chorus--

INTRO
E--------------------------------------- 
B--------------------------------------- 
G---------------------------------------       X2
D--0-7-0-4-0-0-7-0-4-0-0-4-0-5-0-2-45420 
A-5-5-5-----4-4-4-----2-2---2---0-0-----
E---------------------------------------

VERSE
E----
B---3
G---2      X31
D-00-
A----
E----

CHORUS
E---------------------------------
B---------------------------------
G---------------------------------      X4
D-555555555555555-4444444444444444
A-555555555555555-4444444444444444
E-33333333333333302222222222222202

INTRO
E--------------------------------------- 
B--------------------------------------- 
G---------------------------------------       X2
D--0-7-0-4-0-0-7-0-4-0-0-4-0-5-0-2-45420 
A-5-5-5-----4-4-4-----2-2---2---0-0-----
E---------------------------------------

VERSE
E----
B---3
G---2      X31
D-00-
A----
E----

CHORUS
E---------------------------------
B---------------------------------
G---------------------------------      X7
D-555555555555555-4444444444444444
A-555555555555555-4444444444444444
E-33333333333333302222222222222202

If you have corrections e-mail me at evolver_32@yahoo.com
Tap to rate this tab
# A B C D E F G H I J K L M N O P Q R S T U V W X Y Z