Song name
# A B C D E F G H I J K L M N O P Q R S T U V W X Y Z

Falconhead - Pass The Time tab

Band: Falconhead
Song: Pass The Time
Tabbed By: evolver32(evolver_32@yahoo.com)

   This is a new song from Falconhead that I downloaded off their 
website. It's for their next album. It's a cool song and it's not too
hard to play. And their record label is putting out some CD and 
they're going to be on it.

-Distortion Only On Chorus-

INTRO
E--------------------------
B--------------------------
G--------------------------      X2
D--40-40-40-40-40-40-40-40-
A-2--2--0--0---------------
E-------------3--3--0--3---

VERSE
E----------------------------------
B----------------------------------
G-77777777-------------------------      X4
D-77777777555555559999999955555555-
A-55555555555555559999999955555555-
E---------333333337777777733333333-

BREAK
E--------------------------
B--------------------------
G---0--0--0--0-------------      X2
D--7--7--9--9--40-40-40-40-
A-5--5--7--7--2--2---------
E-------------------3--3---

PRE-CHORUS
E----------------------------------
B----------------------------------
G-777777779999999944444444---------      X2
D-77777777999999994444444455555555-
A-55555555777777772222222255555555-
E-------------------------33333333-

CHORUS
E----------------------------------
B----------------------------------
G-777777779999999944444444---------      X2
D-77777777999999994444444455555555-
A-55555555777777772222222255555555-
E-------------------------33333333-

BREAK
E--------------------------
B--------------------------
G---0--0--0--0-------------      X2
D--7--7--9--9--40-40-40-40-
A-5--5--7--7--2--2---------
E-------------------3--3---

VERSE
E----------------------------------
B----------------------------------
G-77777777-------------------------      X4
D-77777777555555559999999955555555-
A-55555555555555559999999955555555-
E---------333333337777777733333333-

BREAK
E--------------------------
B--------------------------
G---0--0--0--0-------------      X2
D--7--7--9--9--40-40-40-40-
A-5--5--7--7--2--2---------
E-------------------3--3---

PRE-CHORUS
E----------------------------------
B----------------------------------
G-777777779999999944444444---------      X2
D-77777777999999994444444455555555-
A-55555555777777772222222255555555-
E-------------------------33333333-

CHORUS
E----------------------------------
B----------------------------------
G-777777779999999944444444---------      X6
D-77777777999999994444444455555555-
A-55555555777777772222222255555555-
E-------------------------33333333-
Tap to rate this tab
 
# A B C D E F G H I J K L M N O P Q R S T U V W X Y Z