Song name
# A B C D E F G H I J K L M N O P Q R S T U V W X Y Z

Falkenbach - The Ardent Awaited Land tab

Falkenbach - the ardent awaited land...


tab by: blackbird88
Tunning: standard (EADGBe) 

The whole song is played with acusticguitar (steelstring)


Riff1: 

this cord plays the first guitar the whole song 

e|---2-2-------2-2-----------------------|
B|---3-3-------3-3-----------------------| 
G|---4-4---4---4-4----4-- and so on... --|  
D|---4-4--4----4-4---4-------------------| 
A|-2-2-2-2---2-2-2-2---------------------| 
E|---------------------------------------| 


2nd guitar: 

e|-------------------------------------| 
B|-------------------------------------| 
G|-------------------------------------| 
D|---------7-0-7-0-8-0-8-0-------------| 
A|-2-2-2-2-----------------------------| 
E|-------------------------------------| 


melody 2nd guitar (without variety): 

e|-------------------------------------------------------| 
B|----------------------------------------------7--------| 
G|-4------4-6-7--7-6-4-----------------------------------| 
D|------4-------------------4-s7-4s7-h8------------------| 
A|-------------------------------------------------------| 
E|-------------------------------------------------------|


Tap to rate this tab
# A B C D E F G H I J K L M N O P Q R S T U V W X Y Z