Falkenbach - As Long As Winds Will Blow tab

 Artist: Falkenbach
 Song: As long as winds will blow

 lead part

 E--12--10--8--12--10--8--12--10--8--12--10--8--7--10--8--7--10--8--7--5-----|
 B---------------------------------------------------------------------------|
 G---------------------------------------------------------------------------|
 D---------------------------------------------------------------------------|
 A---------------------------------------------------------------------------|
 E---------------------------------------------------------------------------|

 rhytm guitar

 E-----------------------------|
 B-----------------------------|
 G--8--8--8--8--6--6--6--4-----|
 D--8--8--8--8--6--6--6--4-----|
 A--6--6--6--6--4--4--4--2-----|
 E-----------------------------|

 Lead guitar (classical):

 E------------------------------------------------------------------|
 B------------------------------------------------------------------|
 G------------------------------------------------------------------|
 D--7--7--7--9--7--7--7--9--10--9--7--9--9--5--12--10--9h10p9--7--5-|
 A------------------------------------------------------------------|
 E------------------------------------------------------------------|

 E-----------------------------------------------------------------|
 B-----------------------------------------------------------------|
 G-----------------------------------------------------------------|
 D--7--7--7--9--7--7--7--9--10--9--7--9--9--5--5--7--9--7--5--7----|
 A-----------------------------------------------------------------|
 E-----------------------------------------------------------------|


 Enjoy it.
Tap to rate this tab
 
# A B C D E F G H I J K L M N O P Q R S T U V W X Y Z