Guitaretab - guitar tabs
Song name
# A B C D E F G H I J K L M N O P Q R S T U V W X Y Z

Falkenbach - When Gjallarhorn Will Sound tab

Keyboard Intro
-14--14----14-----17-16-14----------|
--------17----14-----------17~------|
------------------------------------|
------------------------------------|
------------------------------------|
------------------------------------|

[ Tab from: http://www.guitaretab.com/f/falkenbach/78140.html ]
-14--14----14-----17~--19-17-16-17~-|
--------17----14--------------------|
------------------------------------|
------------------------------------|
------------------------------------|
------------------------------------|


Guitar comes in with:
---------------|
---------------|
--9-----11-----|
--9-----11-----|
--7-----9------|
---------------|


Verse:

---     ---     ----|
---     ---     ----|
-11     -7-     -9--|
-11     -7-     -9--|
-9-     -5-     -7--|
---x8   --x4    ----|x4
Related for When Gjallarhorn Will Sound tab
Advertisement will be closed in 10 seconds