Song name
# A B C D E F G H I J K L M N O P Q R S T U V W X Y Z

Fall On Your Sword - Shatner On The Mount tab

-------------------------------------------------------------------------------
                   SHATNER ON THE MOUNT - Fall On Your Sword
-------------------------------------------------------------------------------
Tabbed by: Barney Gale
Email: barney.gale@gmail.com

Tuning: Drop D (DADGBe)

Fall On Your Sword are SIGNED! 
Website addy: http://www.fallonyoursword.com/

---


Verse:

   1   2   3   4   1   2   3   4   1   2   3   4   1   2   3   4
e|-------------------------------|-------------------------------|
B|-------------------------------|-------------------------------|
G|-------------------------------|-------------------------------|
D|-------------------------------|-----------------5p3-2p0-------|
A|-1---1---x-1---x-1p0---------5-|-1---1---x-1---x---------3-----|
D|---------------------5p3p0-----|-----------------------------5-|


   1   2   3   4   1   2   3   4   1   2   3   4   1   2   3   4
e|-------------------------------|-------------------------------|
B|-------------------------------|-------------------------------|
G|-------------------------------|-------------------------------|
D|-------------------------------|-------------------------------|
A|-1---1---x-1---x-1p0---------5-|-1---1---x-1---x-0---x-0-------|
D|---------------------5p3p0-----|-------------------------3---0-|

Pre-chorus:

   1234123412341234
e|------------------|
B|------------------|
G|------------------|
D|------------------|
A|-5555--------5555-|
D|-----33335555-----|

Chorus:

   1   2   3   4   1   2   3   4   1   2   3   4   1   2   3   4
e|-------------------------------|-------------------------------|
B|-------------------------------|-------------------------------|
G|-------------------------------|-------------------------------|
D|---------3p2-0-----------------|---------5p3-2-----------------|
A|-5---5-------------------------|-----------------3---3---3---3-|
D|---------------0h3---3---3---3-|-5---5---------5---------------|


---


| /  slide up
| \  slide down
| h  hammer-on
| p  pull-off
| ~  vibrato
| +  harmonic
| x  Mute note
===============================================================================
Tap to rate this tab
# A B C D E F G H I J K L M N O P Q R S T U V W X Y Z